Acordes de Guitarra » V »Vertical » Cambiare mi tristeza (Tab)

Cambiare mi tristeza
Vertical

  • Letra y Acordes
    A      D      F#m  E
    Cambiare mi tristeza, 
    A      D      F#m  E
    Cambiare mi vergüenza
    A     D       F#m            E        A     D    F#m  E     
    Los entregare,  por el gozo de Dios
    A      D   F#m E    A   D   F#m E
    Cambiare mi dolor   y mi enfermedad
    A      D      F#m  E  A D  F#m  E
    Los entregare por el gozo de dios
    A      D      F#m       E      
    //SI Señor   SI, SI Señor//
    
    Estrofa
    A             D            F#m       E
    Estando atribulado, pero nunca derrotado
    A      D      F#m  E
    Y perseguido este
    A                     D      
    Maldiciones no me afectan 
    
  • Letra y Acordes
    Intro: A D F#m E x2
    
    Coro
    A(sus2) D(sus2)    F#m E
      Cambiaré mi  triste - za
    A(sus2) D(sus2)    F#m  E
       Cambiaré mi vergüen - za
    A(sus2)  D(sus2) F#m       E     A      D, F#m, E
      Los entregaré    por el gozo de Dios
    
    A(sus2) D(sus2)  F#m, E
       Cambiaré mi dolo-     or
    A(sus2) D(sus2)  F#m  E/G#
       Y - mi enfermeda-   ad
    A(sus2) D(sus2) F#m        E       A      D, F#m, E
     Los    entregaré   por el gozo de Dios
    
    Precoro 1
    A(sus2)   D(sus2)  F#m    E
    Sí      Señor sí, sí   Señor
    
  • Tablatura
    E--------------------------|----------------------------|
    A--12--12------------------|--12--12--------------------|
    D--11--11--12--16--16--14--|--11--11--12----16--16--18--|
    G----------14--14--14--13--|----------14----14--14--16--|
    
                (CORO)
    
    A      D      F#m  E
    Cambiare mi tristeza,
    A      D      F#m  E
    Cambiare mi vergüenza
    A     D       F#m            E        A     D    F#m  E
    Los entregare,  por el gozo de Dios
    A      D   F#m E    A   D   F#m E
    Cambiare mi dolor   y mi enfermedad
    A      D      F#m  E  A D  F#m  E
    Los entregare por el gozo de dios
    A      D      F#m       E
    //SI Señor   SI, SI Señor//
    
    
  • Tab p/Bajo
    Intro:
    Comienza con un solo de bajo que va así:
    E--------------------------|----------------------------|
    A--12--12------------------|--12--12--------------------|
    D--11--11--12--16--16--14--|--11--11--12----16--16--18--|
    G----------14--14--14--13--|----------14----14--14--16--|
    
    Coro:
    E--------------------------|----------------------------|
    A--12--12------------------|--12--12--------------------|
    D--11--11--12--16--16--14--|--11--11--12----16--16--18--|
    G----------14--14--14--13--|----------14----14--14--16--|
    
    Estrofa:
    E--------------------|
    A--------5-----------|
    D--7--7-----9--9--5--|
    G--------------------|
    
    Aunque triste...
    E--0---0-0---0-3-----555555--|
    A----------------------------|
    D----------------------------|
    G----------------------------|
    
    -Se repite todo de nuevo.
    
    -En la parte la, la, la, la,...
    lleva las figuras del intro.
  • Tab p/Bajo
    Intro:
    Comienza con un solo de bajo:
    E--5-5--10-10--14-14--12-12|--5-5--10-10--14-14--12-12--|
    A--------------------------|----------------------------|
    D--------------------------|----------------------------|
    G--6-6--11-11--14-14--13-13|--6-6--11-11--14-14--13-13--|
    
    Coro:
    E--5-5--10-10--14-14--16-16|--5-5--10-10--14-14--16-16--|
    A--------------------------|----------------------------|
    D--------------------------|----------------------------|
    G--6-6--11-11--14-14--16-16|--6-6--11-11--14-14--16-16--|
    
    Estrofa:
    E--------------------|
    A--------5-----------|
    D--7--7-----9--9--5--|
    G--------------------|
    Aunque triste...
    E--0---0-0---0-3-------------|
    A------------------55555555--|
    D----------------------------|
    G----------------------------|
    
    Parte Final
    
    E--5--5----------------------|
    A--------5--5--9--9--7—7-----|
    D----------------------------|
    G----------------------------|
    
    
    E--5--5----------------------|
    A---------5---9—-—9---7------|
    D----------------------------|
    G------------
  • +
    ¡Colabora con nosotros!
    Envíanos tu versión de esta canción

Letra de Cambiare mi tristeza
Cambiare mi tristeza,
Cambiare mi vergüenza
Los entregare, por el gozo de Dios
Cambiare mi dolor y mi enfermedad
Los entregare por el gozo de dios
Estrofa
Estando atribulado, pero nunca derrotado
Y perseguido este
Maldiciones no me afectan
Pues yo se a quien voy
En su gozo fuerte soy
Aunque triste en al noche yo este
El gozo viene en la mañana



© LaCuerda.net · aviso legal · privacidad · contacto