Acordes de Guitarra » V »Van Mozart » Hazme Cambiar (Tab)

Hazme Cambiar
Van Mozart

Letras, Acordes y Tabs para Guitarra, Bajo y Ukulele

  • E.-9/10-9-7-------------------------------------|
    B.-----------10-9-------------------------------
    G.----------------------------------------------
    D.----------------------------------------------
    A.----------------------------------------------
    E.----------------------------------------------
    
           MI                 DO           RE            SI
    E.----------------------------------------------|
    B.-7-9-10---3-5-7--5-7-9--2-4--------------------
    G.----------------------------------------------- x2
    D.-----------------------------------------------
    A.-----------------------------------------------
    E.-----------------------------------------------
    
    rapido
    E.-9/10-9-7-------------------------------------|
    B.-----------10-9-------------------------------
    G.----------------------------------------------
    D.----------------------------------------------
    
  • +
    ¡Colabora con nosotros!
    Envíanos tu versión de esta canción

Letra de Hazme Cambiar
rapido
Versos:
Guardo mis historias en un baúl
Dejo mis costumbres
en un lugar de mi casa esta
esperando por ti
sentado y pensando en este bar
aunque me consueles
no basta intentame librar
de esta soledad
te conocí y no es lo mismo que ayer
hasme cambiar
hoy quiero sentuir otro amoooooor
porqueeee
No quieres verme sufrir
No quieres verme llorar
hasme cambiar
Liberame las penass
No quieres verme sufrir
No quieres verme llorar
hasme cambiar
desata mis cadenaaas
rapido
Con esta cancion mando un saludo muy especial a una chica
que dejo gran huella en mi corazon. . .
Saludos a guayaquil¡¡¡¡¡
Comentarios, ayuda, o panas a mi correo:
Marco15rio@yahoo.com
RIOBAMBA - ECUADOR
Marcko Antonio Ramos.




[Hazme Cambiar chords][Hazme Cambiar cifra]
© LaCuerda.net · aviso legal · privacidad · es · en · pt · contacto
DINAMICO