Acordes de Guitarra » V »La Vacazul » Vuelo (Tab)

Vuelo
La Vacazul

Letras, Acordes y Tabs para Guitarra, Bajo y Ukulele

  • Weno un temazo de este gran grupo Vacazul!!!!!
    
    
    VUELO!!!! JAJAAJA
    
    
    Intro y fraseo del bajo:
    
    e------------------------------------------------------------------------
    b------------------------------------------------------------------------
    g------------------------------------------------------------------------
    d-----4-4------4-4------4-4------4-4------4-4------4-4------3-3-----3-3-
    a------------------------------------------------------------------------
    E-2-2------2-2-------2-2------2-2------5-5------5-5------4-4-----4-4-----
    
    Intro de guitarra:(entra en la 3º repeticion del bajo)
    
    e------------------------------------------------------------------------
    b------------------------------------------------------------------------
    g------------------------------------------------------------------------
    d-----------4-4------4-4------4-4------4-4------4-4------4-4------3-3----
    a------------------------------------------------------------------------
    E-0-0-0-2-2------2-2-------2-2----
  • +
    ¡Colabora con nosotros!
    Envíanos tu versión de esta canción



Video de Vuelo
[]




[Vuelo chords][Vuelo cifra]
© LaCuerda.net · aviso legal · privacidad · es · en · pt · contacto