Acordes de Guitarra » U »El Ultimo ke zierre » En mi cabeza (Tab)

En mi cabeza
El Ultimo ke zierre

Letras, Notas, Punteos, Tablaturas y Acordes de Guitarra (Tabs & Chords)

  • Tablatura
      SI                       MI
    |---------------------------------------------------|
    |---------------------------------------------------|
    |-------------------------------2-1--------2-1-2-4--|
    |------2-1-------2-1-2-4---2---2------2---2---------|X2
    |-2---2-----2---2-----------------------------------|
    |---------------------------------------------------|
    
    
      SI                  FA#    SI              FA#
    |--------------------------------------------------|
    |--------------------------------------------------|
    |--------------------------------------------------|
    |--------------------------------------------------|
    |-2---------------------2---2----------------2-----|
    |--------------------2---------------------2-------|
       Vienes a robarme el alma  para meterla en un frasco
    |--------------------------------------------------|
    |--------------------------------------------------|
    |--------------------------------------------------|
    
  • +
    ¡Colabora con nosotros!
    Envíanos tu versión de esta canción

Letra de En mi cabeza
Vienes a robarme el alma para meterla en un frasco
y arrojarla, y arrojarla al barranco.
Caminando las aceras sin rumbo, vaciando la cartera
De todo el mundo que se cruce y se despiste. que se toca rapido)
El sabor de la cordura nunca habíamos probado
y nos fuimos cada uno por su lado,
Tu a tu vida yo a la mía. No me traigas pesadillas,
si aun me duele es por ti, que aun dependes
de la reina de las drogas.
Y cuando te acerques no me entres por el rabo
que me duele, que aun la tengo en mi cabeza
no tengo temblores ni ningún dolor,
pero aun esta en mi cabeza.
Y ahora vienes,
vienes a robarme el alma para meterla en un frasco
y arrojarla, y arrojarla al barranco.
Tu a tu casa, yo a la mía, que la nuestra hemos quemado,
sobre el fuego en la cuchara
o corriéndola o corriéndola entre plata.
Y cuando te acerques no me entres por el rabo
que me duele, que aun la tengo en mi cabeza
no tengo temblores ni ningún dolor,
pero aun esta en mi cabeza.
Alguna wea que no entiendan me contactan al correo
edorockandroll@hotmail.com
Saludos



© LaCuerda.net · Aviso Legal · Privacidad