Acordes de Guitarra » U »El Ultimo ke zierre » El lobo estepario (Tab)

El lobo estepario
El Ultimo ke zierre

Letras, Notas, Punteos, Tablaturas y Acordes de Guitarra (Tabs & Chords)

  • Letra y Acordes
    INTRO, E F# X2 D A C#
    F#                  A         C#
    Lobo lobo estepario trotando por el mundo
    F#                  A      C#
    De nieve cubierto del abedul sale un
    F#              A         C#
    Cuervo volando y no cruzan liebres
                       F#          A         C#
    Ni corazas por este desierto y no cruzan liebres
    F#                           D           A
    Me enamora una corsa ligera en el mundo no hay nada tan lindo
    F#            A                       C#          F#
    Y hermoso con mis dientes y zarpas de fiera
    D                 A           F#
    Destrozar a su cuerpo sabroso
    A               C#
    Destrozar a su cuerpo
    
    Ya le pueden acomodar la demás letra con los acordes
    
    
  • Tablatura
    bueno ps como de esta rola solo faltaba
    el punteo porqe los acordes ya estan
    muy bien ps aqui esta.......
    
    Solo
    
    /----------------------------------------------------------------/
    /----------10------10--------------------------------------------/
    /--11~~9h11--11-9----11-9--9h11~~--------9------------9----------/
    /----------------11------11------9-11-12---12-11-9-12---12-11-9--/
    /----------------------------------------------------------------/
    /----------------------------------------------------------------/
    
    /----------------------------------------------------------------/
    /------------10--------------------------------------------------/
    /--------9-11--11~-11b-9---9-11b--9--9---------------------------/
    /--11-12-----------11b---11--11b---11--12-11-9-11-12-11-9-11-12--/
    /---------------------------------------......................---/
    /----------------------------------------------------------------/
    
    /--------------------/----------------------10-10-----9-9-9------/
    /-------------
  • +
    ¡Colabora con nosotros!
    Envíanos tu versión de esta canción

Letra de El lobo estepario
Lobo lobo estepario trotando por el mundo
De nieve cubierto del abedul sale un
Cuervo volando y no cruzan liebres
Ni corazas por este desierto y no cruzan liebres
Me enamora una corsa ligera en el mundo no hay nada tan lindo
Y hermoso con mis dientes y zarpas de fiera
Destrozar a su cuerpo sabroso
Destrozar a su cuerpo
Ya le pueden acomodar la demás letra con los acordes
Es muy fácil
Y volviera al fin a mi Amanda y volviera
Mordienendo su carne blanquísima
Saciando mí sed en su sangre por mi derramada
Para aullar luego solo en la noche tristisima
Para aullar luego solo
Una liebre bastara mi anhelo dulce sabe
Su carne en la noche callada
Hay porque me abandona un letal desconsuelo
De la vida a la parte más noble y más pura
De la vida a la parte más noble
Después del INTRO el bajo ase lo suyo con estas notas
Betas grises adquiere mi rabo peludo voy
Perdiendo la vista y me atacan las fiebres
Hace tiempo voy sin hogar y viudo que
Troto con corzos y liebres
Que mi horrible destino me espanta oigo
El aire soplar en la noche de invierno
Hundo nieve en mi ardiente garganta y así voy
Llevando mi mísera alma al infierno



© LaCuerda.net · Aviso Legal · Privacidad