Acordes de Guitarra » U »El Ultimo ke zierre » Calma Quisiera (Tab)

Calma Quisiera
El Ultimo ke zierre

  • Tablatura
     LAm      SOL   FA  LAm      SOL   FA
    |----------------------------------------|
    |----------------------------------------|
    |---5---4--2-4---2----5---4--2-4---2-----|
    |----------------------------------------|
    |-0-----------------0--------------------|
    |----------------------------------------|
    
     LAm      SOL   FA  LAm      SOL   FA
    |--------------------------------------|
    |--------------------------------------|
    |---5---4--2-4---2----5---7-5-4--5-4-2-|
    |--------------------------------------|
    |-0-----------------0------------------|
    |--------------------------------------|
    
    Ahora con overdrive
    
               RIFF BASE
    |---------------------------------| Como sabrán este es el riff
    
  • +
    ¡Colabora con nosotros!
    Envíanos tu versión de esta canción

Letra de Calma Quisiera
Ahora con overdrive
RIFF BASE
|-0--0-0-0-3b(4)-0--0-0-0-5-5-5-5-|
Me da lo mismo a estas alturas que bandera sea la mía
me da lo mismo quien gobierne se jodera mi vida
ya se que suena pretencioso pero siento algo asqueroso
veo el cinismo en las miradas de esos que nos piden calma
calma tu padre tengo casa que pagar tengo hijos que criar
siiiii calma a tu padre tengo miedo
siii si calma quisiera
RIFF sin hacer el SOL
Es bien sabido que ha subido que siempre paguen los mismos
es bien sabido
RIFF sin hacer el SOL
tomadlo todo mi dinero, mi salud, mis libertades
tomadlo todo
siii calma a tu padre
RIFF sin hacer el SOL
tengo ganas de marchar de largarme sin pagar
siii calma a tu padre tengo mierda
siii si calma quisiera
me da lo mismo a estas alturas que bandera sea la mia



© LaCuerda.net · aviso legal · privacidad · contacto