Acordes de Guitarra » U »Ulices Chaidez » Que bonito es querer (Tab)

Que bonito es querer
Ulices Chaidez

Letras, Acordes y Tabs para Guitarra, Bajo y Ukulele

  • SIb                     REm
    Hoy no es 14 de febrero pero te quiero regalar
    MIb                                 SIb
    Las estrellas que hay en el cielo talves te las
      FA  SOLm                       REm
    Bajar y esque tu me elevas asta el cielo amor
    MIb                  SIb                 SOLm
    Con cada palpitar de tu dulce corazon y esque yo
                        REm
    No puedo ocultarlo amor
    MIb                     RE
    Me encantas y es verdad y hoy vengo con la intencion
             SOLm
    De decir que te quiero me gustas y quiero intentarlo
      DOm                                   FA
    Con tigo una y otra ves y esque tu me facinas hay mira
                          SIb           RE
    Mi niña no ahy en el mundo ninguna mujer que se asemeje
     SOLm                          DOm
    Un poco atus hojos divino con esa sonrisa me ace enloqueser
    
  • (F#m,SIm,MI,LA,C#7)
    LA
    Hoy no es 14 de febrero,
       C#m
    Pero te quiero regalar,
    RE                      SIm
    Las estrellas que hay en el cielo,
    LA.                     MI7   F#m
    Tal vez te las pueda bajar…
    F#m
    Y es que tú,
                            C#m
    Me elevas hasta el cielo amor,
    RE.          SIm
    Con cada palpitar,
    LA.           MI7.  F#m
    De tu dulce corazón…
    F#m
    Y es que yo,
                      C#m
    
  • e|-----------------------------
    B|--------3-------------------
    G|------------------------5---
    D|--------------4-------------
    A|------------------------5---
    E|--------------------------
    
    requinto
    
    e|-------------------------------------------------------------
    B|-------------------------------------------------------------
    G|--5/7--7--7--5--3--2-0--3-2h3p2-0---3-2h3p2-0---0-0-0--0--0--
    D|-------------------------------------------------------------
    A|-------------------------------------------------------------
    E|-------------------------------------------------------------
    
    e|--5--3-1--5-3-1--1/3----3---3--3--3--
    B|--6--4-3--6-4-3--3/4--4---4----4--4--
    G|-------------------------------------
    D|-------------------------------------
    
  • +
    ¡Colabora con nosotros!
    Envíanos tu versión de esta canción

Letra de Que bonito es querer
Hoy no es 14 de febrero,
Pero te quiero regalar,
Las estrellas que hay en el cielo,
Tal vez te las pueda bajar…
Y es que tú,
Me elevas hasta el cielo amor,
Con cada palpitar,
De tu dulce corazón…
Y es que yo,
No puedo ocultarlo amor,
Me encantas y es verdad,
Y hoy vengo con la intensión…
De decirte te quiero
Me gustas si quiero
Intentarlo contigo
Una y otra vez…
Y es que tú me fascinas
Hay mira mi niña,
No hay en el mundo
Ninguna mujer…
Que se asemeje un poco
A tus ojos divinos,
Con esa sonrisa
Me hace enloquecer…
A tu belleza interna
Tú forma perfecta,
De decir te quiero
Me enchina la piel…
Por eso me enamore,
Qué bonito es querer.
(Música)
Y es que tú me fascinas
Hay mira mi niña,
No hay en el mundo
Ninguna mujer…
Que se asemeje un poco
A tus ojos divinos,
Con esa sonrisa
Me hace enloquecer…
A tu belleza interna
Tú forma perfecta,
De decir te quiero
Me enchina la piel…
Por eso me enamore,
Qué bonito es querer.




[Que bonito es querer chords][Que bonito es querer cifra]
© LaCuerda.net · aviso legal · privacidad · es · en · pt · contacto