Acordes de Guitarra » U »Ulices Chaidez » Por que me enamoré (Tab)

Por que me enamoré
Ulices Chaidez

Letras, Acordes y Tabs para Guitarra, Bajo y Ukulele

  • Intro:  Dm Gm D# F Dm Gm D# F D# F Bb
    
                Bb
    Que si me encantas,
    
    No sé por qué,
               F
    Tú tienes duda...
    
              D#
    Lo qué demuestro,
               Cm
    Lo que yo siento,
              Bb
    Mis sentimientos,
              F
    Mis sentimientos...
    
           Bb
    Bella princesa,
    
  • Intro[C#- F#m D E] X2
    
    A
    Que si me encantas,
    
    No sé por qué,
              E
    Tú tienes duda...
    
      D
    Lo qué demuestro,
    
    Lo que yo siento,
        A
    Mis sentimientos,
        E
    Mis sentimientos...
    
    A
    Bella princesa,
    
  • Dm Gm D Bm E7
    Dm Gm D Bm E7
    
    
    A
    Que si me encantas,
    
    No sé por qué,
              E7
    Tú tienes duda...
    
       D
    Yo te demuestro,
    
    Lo que yo siento,
        A
    Mis sentimientos,
        E7
    Mis sentimientos...
    
    
  • A
    Que si me encantas
    
    No se por que
               E7
    Tu tienes duda
    
          D
    Yo te demuestro
    
    Lo que yo siento
    A                              E7
    Mis sentimientos, mis sentimientos
    
    
      A
    Bella princesa
    
    De ojitos negros
               E7
    
  • e|--------------0--4--------2--------2-------------
    B|--------------2--5--2--3-----2--3-----2--0h2--2--
    G|--2--2--2--4-------------------------------------
    D|-------------------------------------------------
    A|-------------------------------------------------
    E|-------------------------------------------------
    
    e|-----------------------2--------2--------2--------------
    B|-----------------2--3-----2--3-----2--3-----2--0-----0--
    G|--2--2--2--2--4-----------------------------------2-----
    D|--------------------------------------------------------
    A|--------------------------------------------------------
    E|--------------------------------------------------------
    
    
    e|-----------------0--4--------2--------2-------------
    B|-----------------2--5--2--3-----2--3-----2--0h2--2--
    G|--1--1--1--1--2-------------------------------------
    D|----------------------------------------------------
    A|----------------------------------------------------
    
  • E|-------------4----
    B|---------0-2-5----
    G|--2-2--2----------
    D|------------------
    A|------------------
    E|------------------
    
    E|----0---2-----2---------
    B|--2---3---2-3---2-0h2---
    G|------------------------
    D|------------------------
    A|------------------------
    E|------------------------
    
    E|-----------------2-----2-----2------------
    B|-----------0-2-3---2-3---2-3---2-0---0----
    G|--2-2-2--2-------------------------2------
    D|------------------------------------------
    A|------------------------------------------
    E|------------------------------------------
    
  • +
    ¡Colabora con nosotros!
    Envíanos tu versión de esta canción
  • Tutorial
    Porque me enamore - Ulices Chaidez - TUTORIAL ACORDES-
    4:19
  • Tutorial
    Porque me enamore - Ulices Chaidez - TUTORIAL REQUINTO
    2:23

Letra de Por que me enamoré
Que si me encantas,
No sé por qué,
Tú tienes duda...
Lo qué demuestro,
Lo que yo siento,
Mis sentimientos,
Mis sentimientos...
Bella princesa,
De ojitos negros,
De pelo largo...
Eres perfecta,
Y tu sonrisa,
Que me fascina,
Que me fascina...
Y no es por hablar de más,
Pero yo sin ella no podría estar...
Por qué me enamore,
Y por qué fue de ti,
Por qué tuve que ser yo,
El que no pueda estar sin ti,
Respuesta no encontrare,
No me voy a arrepentir,
Pues tú eres lo mejor,
Que ha llegado para mí,
Porqueeeeee e
Porque fue así...
[Acordes De Intro]
Y no es por hablar de más,
Pero yo sin ella no podría estar...
Por qué me enamore,
Y por qué fue de ti,
Por qué tuve que ser yo,
El que no pueda estar sin ti,
Respuesta no encontrare,
No me voy a arrepentir,
Pues tú eres lo mejor,
Que ha llegado para mí,
Porqueeeeee e
Porque fue así...




[Por que me enamoré chords][Por que me enamoré cifra]
© LaCuerda.net · aviso legal · privacidad · es · en · pt · contacto