Acordes de Guitarra » T »Triana » Abre la puerta niña (Tab)

Abre la puerta niña
Triana

Letras, Acordes y Tabs para Guitarra, Bajo y Ukulele

  • INTRO:     ( Rasgueado  LAm   LA# )
    
               REm  DO  LA# LA (LA7)  varias veces 
    
       
    
            REm                        LAm  (SIm7) 
    VOZ:     YO QUISE SUBIR AL CIELO PARA VER
       REm                                 LAm (SIm DO)
      Y BAJAR HASTA EL INFIER PARA COMPRENDER 
           REm       LAm         REm          LAm  
          QUE MOTIVO ES         QUE NO SENTI DEBER 
         LA#7      LA     LA#    LA   LA#     LA  
        DENTRO DE TI    DENTRO DE TI,  DENTRO DE MI
    
    
    INSTRUMENTAL:  REm DO LA#    LA# DO REm   2 veces
    
    
               (Como instrumental)
    
  •   RE m            ????            LA#
    (---1---)            (---3---)        (-------)
    (---3---)            (---1---)        (---3---)
    (---2---)            (-------)        (---3---)
    (-------)            (-------)        (---3---)
    (-------)            (---3---)        (---1---)
    (-------)            (-------)        (-------)
    
                     REm                           ?????                    
    --------------------1---------------------------3-----------------------
    ---------------3--------3-------------------1-------1-------------------
    -----------2---------------2------------0----------------0--------------
    --------0---------------------------------------------------------------
    -------------------------------------3----------------------------------
    ------------------------------------------------------------------------
    
    
    
    
    
    
  • Rasgueo  LAm   LA#
    
    REm  DO  LA# LA
    
    REm                        DO                  LA#
    -----------------------3-|------8--6--5-6-5--|----------3-------------
    --3--1---3--5--6--5--6---|-------------------|--3--5--6----6--5-6-5-3-
    -------------------------|-------------------|------------------------
    -------------------------|-------------------|------------------------
    -------------------------|-------------------|------------------------
    -------------------------|-------------------|------------------------
    
                     LA        REm                    DO
    ---------------|---------|----------------------|---8--10--10---12----
    1--3--1-3-1----|---------|-3--5--6--8--8-----10-|---5-----------------
    -------------3-|-2-------|----------------------|---5-----------------
    ---------------|---------|----------------------|---5-----------------
    ---------------|---------|----------------------|---------------------
    ---------------|---------|----------------------|---------------------
    
    
  • +
    ¡Colabora con nosotros!
    Envíanos tu versión de esta canción

Letra de Abre la puerta niña
VOZ: YO QUISE SUBIR AL CIELO PARA VER
Y BAJAR HASTA EL INFIER PARA COMPRENDER
QUE MOTIVO ES QUE NO SENTI DEBER
DENTRO DE TI DENTRO DE TI, DENTRO DE MI
(Como instrumental)
ESTRIB 1: ABRE LA PUERTA NIÑA QUE EL DIA VA A COMENZAR
SE MARCHAN TODOS LOS SUEÑOS ENPIEZAS A DESPERTAR
POR LA MAÑANA AMANECEN LA VIDA Y UNA ILUSION
DESEOS QUE SE RETUERCEN MUY DFENTRO DEL CORAZON
INTRUMENTAL:
ESTRIB 2: SOÑABA QUE LA QUERIA SOÑABA QUE ERA VERDAD
QUE LOS LUCEROS TENIAN MISTERIOS PARA SOÑAR
HAY UNA PUERTA NIÑA QUE LA LLAMAN DEL AMOR
DONDE BAILAN LOS LUCEROS Y LA LUNA CON EL SOL
IMPROVISACION como instrumental
ESTRIB 3: ABRE LA PUERTA NIÑA Y DALE PASO AL AMOR
MIRA QUE MISTERIO TIENE ESA NUBE CON EL SOL
POR LA MAÑANA AMANECE LA VIDA Y UNA ILUSION
DESEOS QUE SE RETUERCEN MUY DENTRO DEL CORAZON
HAY UNA PUERTA NIÑA QUE LA LLAMAN DEL AMOR
DONDE BAILAN LOS LUCEROS Y LA LUNA CON EL SOL
IMPROVISACION: Y TERMINANDO




[Abre la puerta niña chords][Abre la puerta niña cifra]
© LaCuerda.net · aviso legal · privacidad · es · en · pt · contacto