Acordes de Guitarra » T »Triana » Una Noche De Amor (Tab)

Una Noche De Amor
Triana

Letras, Acordes y Tabs para Guitarra, Bajo y Ukulele

  • INTRO:       DO  RE   MI m       DO  SIm  MIm
     
     
     
               SIm       LAm            DO  SIm MIm 
    VOZ 1     NIÑA TIENES ALGO    QUE ME PUEDES DAR  
     
               SIm          LAm           DO  SIm MIm           
              BRILLAN TUS ENCANTOS    EN  MI CAMINAR 
     
               DO                         SIm  
              TUVIMOS UNA NOCHE LLENA DE COLOR 
     
                DO                  MIm  
              UN RIO DORADO TUS OJOS SON
     
                DO                           SIm
             PARAMOS LA VIDA CON  NUESTRAS  MANOS
     
                DO                   MIm 
    
  •                C    D        Em
    --------------------------------------------------
    ------------------8h10----------------------------
    -9-11-12-11-11h12------12-11-11h12p11-9-----------
    ----------------------------------------9---------
    --------------------------------------------------
    --------------------------------------------------
                    C                Bm   Em
    --------------------------------------------------
    ---------8h10-8h10p8-10b12b10b12b10---------------
    -9-11-12----------------------------11h12p11---9--
    ---------------------------------------------9----
    --------------------------------------------------
    --------------------------------------------------
    
    --------------------------------------------------
    --------------------------------------------------
    --------------------------------------------------
    -9-12-9-12---------------------------------------
    -----------12p9----12p9h12p9----------------------
    
  • +
    ¡Colabora con nosotros!
    Envíanos tu versión de esta canción

Letra de Una Noche De Amor
VOZ 1 NIÑA TIENES ALGO QUE ME PUEDES DAR

BRILLAN TUS ENCANTOS EN MI CAMINAR

TUVIMOS UNA NOCHE LLENA DE COLOR

UN RIO DORADO TUS OJOS SON

PARAMOS LA VIDA CON NUESTRAS MANOS

LA VIDA CANTABA ESTA CANCION


ESTRIB. UNA NOCHE DE AMOR DESESPERADA )
)
UNA NOCHE DE AMOR QUE SE ALEJO )


VOZ :2 SIGO CAMINANDO AUN TE VEO MAS

BRILLAN TUS ENCANTOS EN MI SOLEDAD



ESTRIB:

VOZ: 1
ESTRIB terminando




[Una Noche De Amor chords][Una Noche De Amor cifra]
© LaCuerda.net · aviso legal · privacidad · es · en · pt · contacto
DINAMICO