Acordes de Guitarra » T »Tranzas » Para llorar por tí (Tab)

Para llorar por tí
Tranzas

  • Letra y Acordes
    DO             MI7
    Desde que entendí
                            LAm
    que en verdad ya no me amas
    FA                        REm
    que por mas que ponga el mundo
                SOL                SOL7
    a tus pies en verdad no sientes nada
    
    Desde que entendi
    que lo nuestro ya se acaba
    que aunque decidieras hoy regresar
    siento un frio en tu mirada
    
    LAm                SOL
    Que solo me queda pensar
                        FA
    en los muebles y en cosas que
    
    hay que dividir
    
  • Tablatura
    e|-----1--0-------------------0|--1--0--------5-----0---|
    B|-------------3--2--------2---|-------3--2-------2-----|
    G|-------------------0---------|-----------------0------|
    D|---------------------2-------|------------------------|
    A|-----------------------------|------------------------|
    E|-----------------------------|------------------------|
    
    e|---1--0--------5---------------------1----------------|
    B|---------3--2-----2--3--2---------2-------------------|
    G|----------------------------0----0--------------------|
    D|-------------------------------2----------------------|
    A|------------------------------------------------------|
    E|------------------------------------------------------|
    
    
    
    
    
    C         C*   C     E7 Emmaj7 E7
    Desde que entendí
    
  • +
    ¡Colabora con nosotros!
    Envíanos tu versión de esta canción

Letra de Para llorar por tí
Desde que entendí
que en verdad ya no me amas
que por mas que ponga el mundo
a tus pies en verdad no sientes nada
Desde que entendi
que lo nuestro ya se acaba
que aunque decidieras hoy regresar
siento un frio en tu mirada
Que solo me queda pensar
en los muebles y en cosas que
hay que dividir
buscar abogados y leyes
que destruyan todo
Desde que lo entendí.
Que Para llorar
no necesito ni pensar en ti
una palabra, una frase un error
que me destruye
desde el dia en que lo entendi
Para llorar
no necesito que me hagas sufrir
porque hasta el viento me grita
que nunca seràs mia
desde el dia en que lo entendi
yo para llorar...para llorar
no necesito mas...
PARA LLORAR POR TI..
PARA LLORAR POR TI
Desque que entendi
que no importa lo que haga
talvez Dios ya no me quizo
escuchar aunque tanto, tanto le rogaba
Que solo nos queda pensar
en los muebles y en cosas que hay que dividir
buacar abogados y leyes que
destruyan todo
Desde que lo entendi...
yo Para llorar
no necesito ni pensar en ti
una palabra, una frase
un error que me destruye
desde el dia en que lo entendi
Para llorar
no necesito que me hagas sufrir
esque hasta el viento me grita
que nunca seràs mia
desde el dia en que lo entendi
yo para llorar...para llorar
no necesito mas...
PARA LLORAR POR TI..
PARA LLORAR POR TI



© LaCuerda.net · aviso legal · privacidad · contacto