Acordes de Guitarra » T »La Trampa » Canciones al viento (Tab)

Canciones al viento
La Trampa

Letras, Acordes y Tabs para Guitarra, Bajo y Ukulele

  • C            D
    Nada sabe el viento
           G     Em
    que nunca se queda,
    C        D          Em                       PARTE ACUSTICA
    que todo ayuda a perder.
    C              D              G     Em
    Soplan desde el alma rachas de aire nuevo
    C           D              Em
    que al fin le harán comprender.
    
    PUNTEO
    E|---------------------------------------------------|
    B|---------------------------------------------------|
    G|---------------------------------------------------|
    D|--------------5/7--5-------------------------------|
    A|-5h7-7-7-5-7---------7-5--5-7-5---5----------5---5-|
    E|-------------------------7------7----7-5-6-7---7---|
    
    Em              D            G            B
    
  •         C             D           Em
    |---------------0-----2-0-2-3-2-2---0-0------------0-0
    |-------------1---1---3-3-3-3-3-3---0-0------------0-0
    |-----------0-------0-2-2-2-2-2-2---0-0----------0-0-0
    |---------2-----------0-0-0-0-0-0---2-2------0h2------
    |---0h2h3---------------------------2-2--------------
    |---------------------------------0-------------------
    
    
    
    
                          |--2-2-0-2
                          |--3-3-3-3
                          |--2-2-2-2
                          |--0-0-0-0
                          |---------
                          |---------
     C            D(tocarla asi ^
    Nada sabe el viento
            Em      A7
    
  • +
    ¡Colabora con nosotros!
    Envíanos tu versión de esta canción

Letra de Canciones al viento
Nada sabe el viento
que nunca se queda,
que todo ayuda a perder.
Soplan desde el alma rachas de aire nuevo
que al fin le harán comprender.
PUNTEO
Quiero una canción que vuele cuando ya no vuele yo
que se haga viento en el aire cuando no respire yo
quiero un viento que te cante
cuando ya no.. cante yo.
Quiero ser más que silencio cuando nada diga yo
quiero ser más que palabras rondando tu corazón
quiero más que cielo abierto cuando suene mi canción.
ESTRIBILLO
Canciones al viento, las manos vacías
¿hasta dónde llegarán?
Canciones al viento, esas son mis alas
que no podrán derribar.
Quiero una canción que vuele cuando ya no vuele yo
que sea viento y se haga canto cuando ya no cante yo
y si es viento y se hace canto en el aire estaré yo.
ESTRIBILLO
Canciones al viento, las manos vacías,
como pájaros se van.
Canciones al viento y no de despedida
que en el aire vivirán.




[Canciones al viento chords][Canciones al viento cifra]
© LaCuerda.net · aviso legal · privacidad · es · en · pt · contacto
DINAMICO