Acordes de Guitarra » T »Topo Gigio » En el bosque de la China (Tab)

En el bosque de la China
Topo Gigio

Letras, Acordes y Tabs para Guitarra, Bajo y Ukulele

  • Dm
    
    Las 3 melodías se tocan en orden consecutivo,
    para formar la introducción.
    
    
    1er. Melodía
    E||---------9--10--9--------------------------|
    B||--9--10------------11--10--9---------------|
    G||------------------------------10---9--7----|
    D||-------------------------------------------|
    A||-------------------------------------------|
    E||-------------------------------------------|
    
    2da. Melodía
    E||--10--10--8----------------------------------8--10----|
    B||-------------10--8--------------------8--10-----------|
    G||---------------------10----7--7---10------------------|
    D||------------------------------------------------------|
    A||------------------------------------------------------|
    
  • +
    ¡Colabora con nosotros!
    Envíanos tu versión de esta canción

Letra de En el bosque de la China
Las 3 melodías se tocan en orden consecutivo,
para formar la introducción.
1er. Melodía
2da. Melodía
3er. Melodía
En un bosque de la china,
La chinita se perdió,
Como yo andaba perdido nos encontramos los dos.
En un bosque de la china,
La chinita se perdió,
Como yo andaba perdido nos encontramos los dos.
Era de noche
y la chinita
Tenía miedo, miedo tenia de andar solita
Anduvo un rato
y se sentó
Junto a la china, junto a la china me senté yo
Era de noche
y la chinita
Tenía miedo, miedo tenia de andar solita
Anduvo un rato
y se sentó
Junto a la china, junto a la china me senté yo
Y yo que si... Y ella que no...
Y yo que si... Y ella que no...
Y al cabo fuimos...
Y al cabo fuimos...
Y al cabo fuimos,
de una opinión.
Bajo el cielo de la china,
La chinita se sentó,
Y la luna en ese instante indiscreta la beso.
Bajo el cielo de la china,
La chinita se sentó,
Y la luna en ese instante indiscreta la beso.
Luna envidiosa,
luna infortuna
Tenía celos, celos tenia, de mi fortuna
Anduvo un rato
y se sentó
Junto a la china, junto a la china me senté yo
Luna envidiosa,
luna infortuna
Tenía celos, celos tenia, de mi fortuna
Anduvo un rato
y se sentó
Junto a la china, junto a la china me senté yo
Y yo que si... Y ella que no.
Y yo que si... Y ella que no.
Y al cabo fuimos...
Y al cabo fuimos...
Y al cabo fuimos,
De una opinión.
En un bosque de la china,
La chinita se perdió,
Como yo andaba perdido nos encontramos los dos.
En un bosque de la china,
La chinita se perdió,
Como yo andaba perdido nos encontramos los dos.

Video de En el bosque de la China
[]




[En el bosque de la China chords][En el bosque de la China cifra]
© LaCuerda.net · aviso legal · privacidad · es · en · pt · contacto