Acordes de Guitarra » T »Los Tipitos » Mil Horas (Tab)

Mil Horas
Los Tipitos

Letras, Notas, Punteos, Tablaturas y Acordes de Guitarra (Tabs & Chords)

  • Tablatura
    D# - F - Dm - Gm
    D# - F - Dm - Gm
    Cm - F - Dm - Gm
    Cm - F - D# - Cm
    F - Dm - D# - D#
    
    GUITARRA:
    e|------------------------------------|
    B|------------------------------------|
    G|------------------------------------|
    D|------------------------------------|
    A|-------------3-3-6-6-5--------------|
    E|3-3-6-6-5-3------------5-5-8-8-6|
    
    e|------------------------------------|
    B|------------------------------------|
    G|------------------------------------|
    D|------------------------------------|
    A|-------------3-3-6-6-5--------------|
    E|3-3-6-6-5-3------------5-5-8-8-6|
    
  • +
    ¡Colabora con nosotros!
    Envíanos tu versión de esta canción

Letra de Mil Horas
GUITARRA:
Hace frío y estoy lejos de casa
hace tiempo que estoy sentado sobre esta piedra,
yo me pregunto, para que sirven las guerras...
tengo un cohete en el pantalon, y vos estas tan fría
como la nieve a mi alrededor, vos estas tan blanca
que ya no se que hacer...
La otra noche te espere bajo la lluvia dos horas
mil horas, como un perro
y cuando llegaste me miraste y me dijiste "loco"
estas mojado ya no te quiero.
Guitarra (Acordes)
En el circo vos ya sos una estrella,
una estrella roja que todos se la imaginan
si te preguntan vos no me conocías,no ,no....
Tengo un cohete en el pantalon, y vos estas tan fria
como la nieve a mi alrededor, vos estas tan blanca
que ya no se que hacer...
La otra noche te espere bajo la lluvia dos horas
mil horas, como un perro
y cuando llegaste me miraste y me dijiste "loco"
estas mojado ya no te quiero.
Bajo la lluvia dos horas
mil horas, como un perro
y cuando llegaste me miraste y me dijiste "loco"
estas mojado ya no te quiero.
y me dijiste "loco"
estas mojado ya no te quiero.
Guitarra (Acordes)
FINAL:
**********************************
Saludos a mi amiga Meli Buyatti :)
SeTeQuiereAgustina!! :3
-
By: Javitoo Vallejos.-
***********************************



© LaCuerda.net · Aviso Legal · Privacidad
DINAMICO