Acordes de Guitarra » T »Los Tipitos » Campanas en la noche (Tab)

Campanas en la noche
Los Tipitos

Letras, Acordes y Tabs para Guitarra, Bajo y Ukulele

  • INTRO: Em /C /D /Gb7
    
    VERSO
    Em                              C
    Un hombre de frente a una ventana
                      D
    Súper lucida la mirada
                        G
    Recorre el paisaje y no
         B7            Em
    No es su interior es luna
                       C
    Son sombras lejanas del bosque
                        D
    Es algo raro en las estrellas
                           G
    Sonidos que inducen temor
      B7                    C
    Y también melancolía de esperar,
        D
    
  • E5              C5              D5              G5       B5
    D|-5-4-------------5-5-4-4-5-4--------------
    A|-2-2--2-2-2-2-2--2-2-2-2-3-3--3-3-3-3-3---
    E|------------------------------------------
    
    D|5-5-4-4-5-4---------------5-5-4-4--------------------4------------------|
    A|3-3-3-3-5-5--5-5-5-5-5----5-5-5-5-5------------------2--2-2-2-2-2-2-----|
    E|----------------------------------3--3-3-3-3-3-3------------------------|
                                                                             x2
    Intro: E5  C5  D5  G5 B5
    
    E5                              C5
    Un hombre de frente a una ventana
                      D5
    Super lucida la mirada
                        G5
    Recore el paisaje y no
         B5            Em
    No es su interior es luna
                       C
    
  • --0--------2-------0---------------------
    ---1--------3-------0--------------------
    ----0--------2-------0-------------------
    -----2--------0-------2------------------
    ------3----------------2-----------------
    ------------------------0----------------
    
    
    Intro X2
    
    -----------------------------------------------------------------
    -----------------------------------------------------------------
    -----------------------------------------------------------------
    -5-4---------------5-5--4-4-----5-4-------------5-5--4-4---------
    -2-2-2-2-2-2-2-----2-2--2-2-----3-3-3-3-3-3-3---3-3--5-5---------
    -----------------------------------------------------------------
         |---PM---|                     |---PM---|
    
    
    ------------------------------------------------------------
    
  • INTRO: Em /C /D /Gb7
    
    Riff
    
    e|---------------------------------------------|
    B|---------------------------------------------|
    G|---------------------------------------------| SIGUE
    D|--5-4---------5-4-5-4--5-4---------5-4-5-4---| ABAJO
    A|--2-2-2222222-2-2-2-2--3-3-3333333-3-3-3-3---|
    E|---------------------------------------------|
    
    e|---------------------------------------------|
    B|---------------------------------------------|
    G|---------------------------------------------| SE REPITE
    D|-5-4---------4/5-4-5-4-------------4---------| LAS 2 JUNTAS
    A|-5-5-5555555-5---5-5-5--5----------2-2222222-|
    E|------------------------3-3333333------------|
    
    VERSO
    Em                              C
    
  •   C       D       Em
    --0--------2-------0---------------------
    ---1--------3-------0--------------------
    ----0--------2-------0-------------------
    -----2--------0-------2------------------
    ------3----------------2-----------------
    ------------------------0----------------
    
    
    Intro X2
    
    -----------------------------------------------------------------
    -----------------------------------------------------------------
    -----------------------------------------------------------------
    -5-4---------------5-5--4-4-----5-4-------------5-5--4-4---------
    -2-2-2-2-2-2-2-----2-2--2-2-----3-3-3-3-3-3-3---3-3--5-5---------
    -----------------------------------------------------------------
         |---PM---|                     |---PM---|
    
    
    
  • +
    ¡Colabora con nosotros!
    Envíanos tu versión de esta canción
  • Tutorial
    como tocar con la guitarra campanas en la noche
    9:53

Letra de Campanas en la noche
VERSO
Un hombre de frente a una ventana
Súper lucida la mirada
Recorre el paisaje y no
No es su interior es luna
Son sombras lejanas del bosque
Es algo raro en las estrellas
Sonidos que inducen temor
Y también melancolía de esperar,
De esperar.
ESTRIBILLO
Que esperan que ella vuelva
Y le diga: aca estoy mi amor
No existe el olvido
Aca estoy mi amor de vuelta
He vencido, ¿lo puedes creer?
No existe el olvido mi amor
No existe...
VERSO
Su mente inquieta se puebla de historias
Su cuerpo es solo memoria
Es eso que hay que sentir
Con paciencia infinita
Andando las calles ajenas
De hombres que al fin le dan pena
Campanas en la noche
Ruidos de melancolía que esperan
Que esperan...
ESTRIBILLO
RIFF
VERSO:
Delirio, tremendo ficción literaria
Secretos que fueron plegaria
Espejo maldito que al fin
Duplico toda su vida
Andando las calles ajenas
De hombres que al fin le dan pena
Campanas en la noche
Ruidos de melancolía que esperan
Que esperan...
ESTRIBILLO




[Campanas en la noche chords][Campanas en la noche cifra]
© LaCuerda.net · aviso legal · privacidad · es · en · pt · contacto