Acordes de Guitarra » T »Tijuana No » Pobre De Ti (Tab)

Pobre De Ti
Tijuana No

Letras, Acordes y Tabs para Guitarra, Bajo y Ukulele

  •    Em
    Si no das el trancazo tu
          Bm
    Te lo da el de la esquina
       Em
    Si no das el trancazo tu
          Bm
    Te lo da el de la esquina
    
    
      Em                  Bm
    Pobre de ti, pobre de ti a-ah-a-ah
      Em                  Bm
    Pobre de ti, pobre de ti a-ah
    
    
       Em
    Si no das el trancazo tu
          Bm
    Te lo da el de la esquina
    
  •         A.N.
    E------(12)-------(7)---|
    B------(12)-------(7)---|
    G------(12)-------(7)---|  2 TIEMPOS
    D-----------------------|
    A-----------------------|
    E-0---------------------|
    
    RIFF 1
    E----------------------|--------|
    B----------------------|--------|
    G----------------------|--------|
    D--9-9--9-9--9-9--9-9--|-11-11--|  3 VECES
    A--7-7--7-7--7-7--7-7--|--9--9--|
    E----------------------|--------|
       E5                    F#5
    
    RIFF 2
    E-------------------------------|
    B-------------------------------|
    
  • Una muy buena cancion de tijuana no... creo que son las notas correctas
    espero que les sea de ayuda mi version
    
    Intro
    G|---------------------|---------------------|
    D|------9/10-9--9h10p9-|------9/10-9--9h10p9-|
    A|-7-7-----------------|-7-7-----------------|
    E|---------------------|---------------------|
    
    G|--------|--------|--------|-----------|
    D|--------|--------|--------|-----------|
    A|-7-7--7-|--------|-7-7--7-|------10-9-|
    E|--------|-7-7--7-|--------|-7-7-------|
    
    G|---------------------|---------------------|
    D|------9/10-9--9h10p9-|------9/10-9--9h10p9-|
    A|-7-7-----------------|-7-7-----------------|
    E|---------------------|---------------------|
    
    G|--------|--------|--------|-----------|
    D|--------|--------|--------|-----------|
    A|-7-7--7-|--------|-7-7--7-|------10-9-|
    E|--------|-7-7--7-|--------|-7-7-------|
    
    
    G|-----9-7---|-----9-7-9---|
    D|---------9-|-------------|x3
    A|-7-7-------|-7-7---------|
    E|-----------|-------------|
    
    G|-----9-7---7-9-7-------|
    D|---------9-------
  • Esta cancion esta re chida
    muy movidita
    ps se la dedico a Astrid
    alla en la distancia
    espero les guste mi transcripcion
    y sobre todo les sea de ayuda
    
    Intro
    E|--------------------|--------------------|
    A|--7-7---------------|-7-7----------------|
    D|------7/10-9-9h10h9-|-----7/10-9-9h10h9--|
    G|--------------------|--------------------|
    
    E|------|--7-7-|-7----|--7-7------|
    A|--7-7-|-7----|--7-7-|-7----7-9--|
    D|------|------|------|-----------|
    G|------|------|------|-----------|
    
    E|-------------------|-------------------|
    A|--7----------------|-7-----------------|
    D|-----7/10-9-9h10h9-|----7/10-9-9h10h9--|
    G|-------------------|-------------------|
    
    E|------|--7-7-|-7----|--7-7------|
    A|--7-7-|-7----|--7-7-|-7----7-9--|
    D|------|------|------|-----------|
    G|------|------|------|-----------|
    
    E|----------|----------|
    A|--77------|-77-------|x3
    D|--------9-|----------|
    G|----9-7---|---9-7-9--|
    
    E|-----------------------|
    A|--77-------------------|
    D|--------9-------9-7-5--|
    G|----9-7---7-9
  • INTRO
    1.
    G-----------------------------|
    D-----------------------------|
    A-----------------------------| 2 VECES
    E-0-/-7-\8/7---7-8-7----------|
    B-----------------------------|
      Em
    
    2.
    G-------------------------------|
    D-------------------------------|
    A-------------------------------|
    E-0-0--0--------0-0--0----------|
    B--------0-0--0--------0-0--0---|
      Em     B      Em     B
      
    REPITE 1 , 2
    
    3.                         4.
    G---------------|          -------------------------|  
    D---------------|          -------------------------|  
    A----7-5--------|6 VECES   ---7-5---5---------------|   
    E--0-----7-0----|          -0-----7---7-5-7-3-2-0---| 
    B---------------|          -------------------------| 
       Em                       Em
    
    5.  
    G--------------------------------|
    D--------------------------------|
    A--------------------------------| 4 VECES
    E-0-0--0-0--0-0--0-0--2-2--------|
    B--------------------------------|
      Em                  F#5
    
    6.
    G------
  • Busquen la transposición a su instrumento.
    
    VERSO 1, 1° SOLO SAX.
    
    Sol  re si re si sol la si- mi fa# sol mi fa#
    
    Sol re sol do sol si sol la -sol fa#-  mi fa# do mi- sol fa#            FIG.1
    
    Sol sol la si do mi- re- mi re do si
    
    MI X 8 SI SI (grave)                      fig.2
    
    Sol x 3 fa#x3  REx3
    
    
    
    Figura antes del verso.
    
    Sol fa# mi- mi fa# sol- si- fa.
    
    Sol fa# mi mi fa# sol fa# sol fa#                               fig.3
    
    Sol fa# mi- mi fa# sol- si- fa.
    
    Sol fa# mi mi fa# sol fa# sol fa#- RE MI
    
    
    
    Si no das el trancazo……
    
    Mi SI SOL SI SOL SI sol fa#                         Fig.4 va en el  segundo
    
    Si no das el trancazo tu….
    
    
    
    Mi  sol x4 la sol fa# sol sol
    
    Re fa# x4 sol fa# mi fa# fa#                  fig.5 rep dos veces.
    
    
    
    Actualizaré el 2do solo del sax.
  • +
    ¡Colabora con nosotros!
    Envíanos tu versión de esta canción

Letra de Pobre De Ti
RIFF 1
RIFF 2
(SAX1)
(SAX2)
(SAX1)
SI NO DAS EL TRANCAZO TÚ
TE LO DA EL DE LA ESQUINA, LO SABES 2 VECES
POBRE DE TI, POBRE DE TI HA HA HA 4 VECES
(REPITE 1ER PARRAFO)
(SAX2)
RIFF3
(REPITE RIFF1)
(CON PAUSA AL FINAL)
(SAX1)
ESTABAS EN LA CARCEL
Y NADIE FUE NI PA´DARTE UNA VISITA 2 VECES
POBRE DE TI, POBRE DE TI HA HA HA 4 VECES
(REPITE 2DO PARRAFO)
(SAX2)
(RIFF3)
(RIFF1)

Video de Pobre De Ti
[]




[Pobre De Ti chords][Pobre De Ti cifra]
© LaCuerda.net · aviso legal · privacidad · es · en · pt · contacto