Tablatura para Bajo de Tijuana No: Pobre De Ti
Conexión · Inscripción
Letras y Acordes
Pantalla Completa
Imprimir
Versión Texto
Añadir Favorito
Otras Versiones

Mostrar Diagramas
Desfile Automático
Formato del Texto


Tijuana No
Pobre De Ti(BAJ)
calidad:
tjno0023
AUTOR: Tijuana No  corregir
ALBUM: desconocido
Enviado por mauricio
Esta cancion esta re chida
muy movidita
ps se la dedico a Astrid
alla en la distancia
espero les guste mi transcripcion
y sobre todo les sea de ayuda

Intro
E|--------------------|--------------------|
A|--7-7---------------|-7-7----------------|
D|------7/10-9-9h10h9-|-----7/10-9-9h10h9--|
G|--------------------|--------------------|

E|------|--7-7-|-7----|--7-7------|
A|--7-7-|-7----|--7-7-|-7----7-9--|
D|------|------|------|-----------|
G|------|------|------|-----------|

E|-------------------|-------------------|
A|--7----------------|-7-----------------|
D|-----7/10-9-9h10h9-|----7/10-9-9h10h9--|
G|-------------------|-------------------|

E|------|--7-7-|-7----|--7-7------|
A|--7-7-|-7----|--7-7-|-7----7-9--|
D|------|------|------|-----------|
G|------|------|------|-----------|

E|----------|----------|
A|--77------|-77-------|x3
D|--------9-|----------|
G|----9-7---|---9-7-9--|

E|-----------------------|
A|--77-------------------|
D|--------9-------9-7-5--|
G|----9-7---7-9-7--------|

E|--00-00-00-00------|
A|--------------2-2--|x4
D|-------------------|
G|-------------------|

E|------|-----|------|
A|------|-----|-555--|
D|--555-|-444-|------|
G|------|-----|------|

(silencio)

E|----------|---------|-7-----9-|-7-----9--|
A|--7-------|-7-------|-----9---|-----9----|x4
D|----5-9-5-|---5-9-5-|---6-----|---6------|
G|----------|---------|---------|----------|

si ignoras el fracaso tu
E|------------------|-77-777-77-----7--|
A|--77-777-777-77---|-----------5-4----|x2
D|----------------5-|------------------|
G|------------------|------------------|

Pobre de ti
E|------------------|-77-777-777-77-7--|
A|--77-777-777-77-7-|------------------|
D|------------------|------------------|
G|------------------|------------------|

Pobre de ti
E|----------|---------|-7-----9-|-7-----9--|
A|--7-------|-7-------|-----9---|-----9----|
D|----5-9-5-|---5-9-5-|---6-----|---6------|
G|----------|---------|---------|----------|

si ignoras el fracaso tu
E|------------------|-77-777-77-----7--|
A|--77-777-777-77---|-----------5-4----|x2
D|----------------5-|------------------|
G|------------------|------------------|

Pobre de ti
E|----------|---------|-7-----9-|-7-----9--|
A|--7-------|-7-------|-----9---|-----9----|x2
D|----5-9-5-|---5-9-5-|---6-----|---6------|
G|----------|---------|---------|----------|

E|----------|-------------|-7-----9-|-7-----9--|
A|--7-------|-7-----------|-----9---|-----9----|x2
D|----5-9-5-|---5-7h9-7h9-|---6-----|---6--6---|
G|----------|-------------|---------|----------|

E|--777-777-|-------|
A|----------|-----5-|
D|----------|-5-4---|
G|----------|-------|

E|--00-00-00-00------|
A|--------------2-2--|x4
D|-------------------|
G|-------------------|

E|------|-----|------|
A|------|-----|-555--|
D|--555-|-444-|------|
G|------|-----|------|

(silencio)

E|----------|---------|-7-----9-|-7-----9--|
A|--7-------|-7-------|-----9---|-----9----|x4
D|----5-9-5-|---5-9-5-|---6-----|---6------|
G|----------|---------|---------|----------|

estabas en la carcel
E|------------------|-77-777-77-----7--|
A|--77-777-777-77---|-----------5-4----|x2
D|----------------5-|------------------|
G|------------------|------------------|

Pobre de ti
E|------------------|-77-777-77-----7--|
A|--77-777-777-77---|-----------5-4----|
D|----------------5-|------------------|
G|------------------|------------------|

Pobre de ti
E|----------|---------|-7-----9-|-7-----9--|
A|--7-------|-7-------|-----9---|-----9----|
D|----5-9-5-|---5-9-5-|---6-----|---6------|
G|----------|---------|---------|----------|

estabas en la carcel
E|------------------|-77-777-77-----7--|
A|--77-777-777-77---|-----------5-4----|x2
D|----------------5-|------------------|
G|------------------|------------------|

Pobre de ti
E|----------|---------|-7-----9-|-7-----9--|
A|--7-------|-7-------|-----9---|-----9----|x2
D|----5-9-5-|---5-9-5-|---6-----|---6------|
G|----------|---------|---------|----------|

E|----------|-------------|-7-----9-|-7-----9--|
A|--7-------|-7-----------|-----9---|-----9----|x2
D|----5-9-5-|---5-7h9-7h9-|---6-----|---6--6---|
G|----------|-------------|---------|----------|

E|--777-777-|-------|
A|----------|-----5-|
D|----------|-5-4---|
G|----------|-------|

E|--00-00-00-00------|
A|--------------2-2--|x4
D|-------------------|
G|-------------------|

atte. miauricio gatolar
Este fichero es trabajo propio de su transcriptor y representa su interpretación personal de la canción. El material contenido en esta página es
para exclusivo uso privado, por lo que se prohibe su reproducción o retransmisión, así como su uso para fines comerciales.
© LaCuerda.net · Aviso Legal · Privacidad