Acordes de Guitarra » T »Los Tigres del Norte » Prisión de amor (Tab)

Prisión de amor
Los Tigres del Norte

  • Letra y Acordes
    Intro: G#, F7, A#m, D#7, G#, F7, A#m, D#7, G#
    
    
    G#   F7              A#m            D#7
    Mi amor no es pasajero veras
                G#             F7
    que todo te lo voy a entragar
                A#m
    y nada yo te voy a ocultar
               D#7
    porque te quiero en verdad,
        G#
    lo juro
    
      F7           A#m          D#7
    Regalame tus besos de miel
                G#            F7
    impregname tu aroma en la piel
                A#m
    y hazme que me sienta sonar
    
  • Tablatura
           Intro: G#, F7, A#m, D#7, G#, F7, A#m, D#7, G#
    
    6-----------------------------------------------------------------------
    5-----------------------------------------------------------------------
    4-----------------------------------------------------------------------
    3---------10---------------8------------------10------------------------
    2--------9----------------8-9-9-9-9----------9---------11-11------------
    1-8-11-8-----9-9-9---5-9-5-------------8-11-8----9-9-9-------8-9-9-8-11-
    
    6---------
    5---------
    4---------
    3---------
    2---11-9--
    1-8-------
    
    G#   F7              A#m            D#7
    Mi amor no es pasajero veras
                G#             F7
    que todo te lo voy a entregar
    
  • +
    ¡Colabora con nosotros!
    Envíanos tu versión de esta canción

Letra de Prisión de amor
Mi amor no es pasajero veras
que todo te lo voy a entragar
y nada yo te voy a ocultar
porque te quiero en verdad,
lo juro
Regalame tus besos de miel
impregname tu aroma en la piel
y hazme que me sienta sonar
con esa forma de amar, carino
Esta entrega sera diferente
ser el uno del otro por siempre
no como esos que dan
y en seguida se van
y que se hacen llorar, llorar
A nosotros nos sobran motivos
es por eso que estamos cautivos
en esta prision
donde hay solo amor, carino
Regalame tus besos de miel
impregname tu aroma en la piel
y hazme que me sienta sonar
con esa forma de amar, carino
Esta entrega sera diferente
ser el uno del otro por siempre
no como esos que dan
y en seguida se van
y que se hacen llorar, llorar
A nosotros nos sobran motivos
es por eso que estamos cautivos
en esta prision
donde hay solo amor, carino



© LaCuerda.net · aviso legal · privacidad · contacto