Acordes de Guitarra » T »Los Tigres del Norte » Golpes en el Corazón (Tab)

Golpes en el Corazón
Los Tigres del Norte

Letras, Acordes y Tabs para Guitarra, Bajo y Ukulele

  • D            Bm
    Yo te regalaba todo
    G              A7
    todo lo que me pedias
     D                Bm 
    sin embargo me reclamas
    G                A7
    y te daba hasta mi vida
    
          D              Bm
    Pero tu, que me has dado
     G                 A7
    falsas promesas de amor
          D              Bm
    pero tu, que me has dado
     G              A7
    golpes en el corazon
    
    D              Bm
    Yo te regalaba todo
    
  • Pues, esta es la primera canción que saco, y me dieron ganas de ponerla
     en LaCuerda, en vista de que no hay una tablatura de dicha canción,
     espero y les guste. Cualquier duda y/o comentario contactenme y
     envienme un correo a saske21-2(arroba)hotmail(punto)com
    
    (Intro)
    
    e----------------I----------------I----------------I----------------I
    B----------0-----I----------1-0-0-I----------0-----I----------1-0-0-I
    G-0-0-0--0---2-2-I-2-2-2---2------I-0-0-0--0---2-2-I-2-2-2---2------I
    D-------2--------I------3---------I-------2--------I------3---------I
    
    e-----2-5-3-2-2-I-3-3--33-3-2-3-2---I-----2-5-3-2-2-I-3-3-3-3-3-2-3-2---I
    B-3-5-----------I-----------------5-I-3-5-----------I-----------------5-I
    
    (Yo te regalaba todo...)
    
    e----------------I----------------I----------------I----------------I
    B----------0-----I----------1-0-0-I----------0-----I----------1-0-0-I
    G-0-0-0--0---2-2-I-2-2-2---2------I-0-0-0--0---2-2-I-2-2-2---2------I
    D-------2--------I------3---------I-------2--------I------3
  •   D            Bm       G            A7
    e --------------------------------------------
    b --------------------------------------------
    g --------------6/4-4----4-4-4-4---4--4/7-6-6-- X2
    d 7-7-7-7--4-7-------------------5------------
    E --------------------------------------------
    
      D        Bm            G           A7
    e --------------------------------------------
    b --------------------------------------------
    g 7-9-11---14-12-11-11---12-12-12-12-11-9-11-9 X2
    d --------------------------------------------
    E --------------------------------------------
    
    D                Bm
    Yo te regalaba todo
    G                 A7
    todo lo que me pedias
     D                Bm
    sin embargo me reclamas
    
  • e--333-0-3-5s7-7-5---777--7-10-10-8
    b-----------------------7----------
    G----------------------------------
    D----------------------------------
    A----------------------------------
    E----------------------------------
    ____________________________________
    e--333-0-3-5s7-7-5---777--7-10-10-8
    b-----------------------7----------
    G----------------------------------
    D----------------------------------
    A----------------------------------
    E----------------------------------
    
    (pero tu)
    
    e-3-5-7-8s10-88-7-8-8-8-8-7-7s8-7-5
    b----------------------------------
    G----------------------------------
    D----------------------------------
    
  • +
    ¡Colabora con nosotros!
    Envíanos tu versión de esta canción
  • Tutorial
    Golpes En El Corazon
    Como Tocar
    Los Tigres Del Norte
    3:10

Letra de Golpes en el Corazón
Yo te regalaba todo
todo lo que me pedias
sin embargo me reclamas
y te daba hasta mi vida
Pero tu, que me has dado
falsas promesas de amor
pero tu, que me has dado
golpes en el corazon
Yo te regalaba todo
hoy renimos y te olvidas
sali mal con mis amigos
porque tu no los querias
Pero tu, que me has dado
todo lo perdi por ti
pero tu, que me has dado
Para sanar las heridas
voy a buscar otro amor
casi arruinaste mi vida
golpeando mi corazon
Yo te regalaba todo
con mi madre discutia
me queria abrir los ojos
perdoname madre mia
Pero tu, que me has dado
falsas promesas de amor...
Para sanar las heridas...
Pero tu, que me has dado
falsas promesas de amor...




[Golpes en el Corazón chords][Golpes en el Corazón cifra]
© LaCuerda.net · aviso legal · privacidad · es · en · pt · contacto