Acordes de Guitarra » T »Los Tigres del Norte » Mi Curiosidad (Tab)
  • Letra y Acordes
    INTRO : A-E-F#m-D-E
    
       A
    Perdona mi curiosidad
                                  E
    Pero quisiera conocer cada detalle de tu intimidad
                                                    F#m
    Si crees en el destino y cuales son las cosas, que te hacen reí­r
    D              E     E7
    Y que te hace llorar
    
       A
    Perdona mi curiosidad
                                            E
    No pienses que pretendo entrometerme en tu privacidad
                                             F#m
    recien nos conocemos pero me mata esta suerte de ansiedad
    D
    En el dí­a te pienso en las noches te sueño
                                 E    E7
    
  • Tab p/Bajo
    INTRO
    G------------------------------------------------
    D------------------------------------------------
    A----7-------7-------7-------7------5-----7------
    E-5------5-------5-------5------5-------------7--
    
    --------------------------------------------------
    --------------------------------------------------
    --9------------5-------------------9-----7--------
    ---------9------------5-----7-------------------7-
    
    
    Perdona mi curiosidad ……
    G----------------------------------------------------------------------
    D---------------7-----------------------------------------------------
    A---------7----------7----------7----------5----7---------7--------
    E----5---------------------5----------5----------------7---------7--
    
                        Y que te hace llorar……
    ----------------------------------------------9-------------------------
    -----------------------------------------9-9----------------------------
    --9----------9----------5---------7--------------7--------------------
    --------9--------
  • +
    ¡Colabora con nosotros!
    Envíanos tu versión de esta canción

Letra de Mi Curiosidad
Perdona mi curiosidad
Pero quisiera conocer cada detalle de tu intimidad
Si crees en el destino y cuales son las cosas, que te hacen reí­r
Y que te hace llorar
Perdona mi curiosidad
No pienses que pretendo entrometerme en tu privacidad
recien nos conocemos pero me mata esta suerte de ansiedad
En el dí­a te pienso en las noches te sueño
Y todo lo diera por ser tu dueño
Háblame de ti
Cuéntame quien eres
Déjame saber de que manera te entretienes
Que te hace feliz, quien te hizo sufrir
Yo quiero saber de ti
Cuéntame tus miedos
Cuales son tus sueños
Que tan importante es para ti el dinero
No me ocultes nada todo me interesa
Si se trata de ti
Perdona mi curiosidad yo solo quiero conocerte mas y mas....
Perdona mi curiosidad
Antes de conocerte nunca Habí­a sentido esta necesidad
de saber tanto de alguien solo tu
Y esa manera de querer lo han podido provocar
Perdona mi curiosidad
Pero si no te importa dime Lo que piensas de la eternidad
Prefieres solo agua o tal vez un Buen vino para cenar
Si te gustan los libros Tu autor preferido
Y Si a cazo quieres casarte conmigo
Háblame de ti
Cuéntame quien eres
Déjame saber de que manera te entretienes
Que te hace feliz, quien te hizo sufrir
Yo quiero saber de ti
Cuéntame tus miedos
Cuales son tus sueños
Que tan importante es para ti el dinero
No me ocultes nada todo me interesa
Si se trata de ti
Perdona mi curiosidad yo solo quiero conocerte mas y mas....



© LaCuerda.net · aviso legal · privacidad · contacto