Acordes de Guitarra » T »Los Tigres del Norte » Amor de madre (Tab)

Amor de madre
Los Tigres del Norte

Letras, Notas, Punteos, Tablaturas y Acordes de Guitarra (Tabs & Chords)

  • Letra y Acordes
               SOL
    Dame por Dios, tu bendición
                     RE
    oh madre mía adorada
                  DO           RE
    Que yo a tus pies pido perdón
                             SOL
    por lo que tanto has sufrido
                                 SOL7
    ahora que estás en la mansión
                   DO
    Una mirada te pido
    RE        SOL           DO  RE     SOL
    Madre querida Ruega por mí al Creador
    
             RE                        SOL
    Tú que estás en la mansión de ese trono celestial
         LA                    RE
    Mándale a mi corazón un suspiro maternal
           RE7              SOL
    
  • Tablatura
    E|-----------3-3---3-2-5-3-3-3-----------7--12-10---7-10--8
    B|-----------3-3-----------3-3----------8---13-12---8-12-10
    G|---4-2-5-4---------------------------7----
    D|---
    A|---
    E|---
    
    E|--------------3-3---------------5-5---------5--14-12----8-12-10-10
    B|---3-2-3-3/5--5-5----5-3-5-5/7--7-7--------7---15-13---10-13-12-12
    G|------------------------------------------7--
    D|---
    A|---
    E|---
    
    E|-----------3-3---3-2-5-3-3-3-----------7--12-14----12-10--8--8
    B|-----------3-3-----------3-3----------8---13-15----13-12-10-10
    G|---4-2-5-4---------------------------7----
    D|---
    A|---
    E|---
    
  • +
    ¡Colabora con nosotros!
    Envíanos tu versión de esta canción

Letra de Amor de madre
Dame por Dios, tu bendición
oh madre mía adorada
Que yo a tus pies pido perdón
por lo que tanto has sufrido
ahora que estás en la mansión
Una mirada te pido
Madre querida Ruega por mí al Creador
Tú que estás en la mansión de ese trono celestial
Mándale a mi corazón un suspiro maternal
Un suspiro maternal mándale a mi corazón
que me llegue, que me llegue al corazón
Mira madre que en el mundo
nadie te ama como yo
Mira que el amor de madre
es tan PURO como Dios
Mira madre que en el mundo
nadie te ama como yo
Se acabó el amor de madre
que era mi única ilusión
(MELODIA)
Tú que estás en la mansión de ese trono celestial
Mándale a mi corazón un suspiro maternal
Un suspiro maternal mándale a mi corazón
que me llegue, que me llegue al corazón
Mira madre que en el mundo
nadie te ama como yo
Mira que el amor de madre
es tan PURO como Dios
Mira madre que en el mundo
nadie te ama como yo
Se acabó el amor de madre
que era mi única ilusión



© LaCuerda.net · Aviso Legal · Privacidad