Acordes de Guitarra » T »Thalia » Estoy Enamorada (Tab)

Estoy Enamorada
Thalia

Letras, Acordes y Tabs para Guitarra, Bajo y Ukulele

  • D, G, A, A7, D (x2)
    
    THALIA
             D                                 G
    Quiero beber los besos de tu boca, como si fueran gotas de rocío
                A                 A7                  D
    Y ahi en el aire dibujar tu nombre junto con el mío
    
    PEDRO CAPÓ
             D
    Y en un acorde dulce de guitarra
             G
    pasear locuras en tus sentimientos
               A                   A7                  D
    y en el sutil abrazo de la noche sepas lo que siento
    
    
    CORO (DUETO)
               G      A                  D      A    Bm
    Estoy enamorada/o, y tu amor me hace grande eh y eh
    
  • D, G, A, A7, D (x2)
    
    THALIA
             D
    Quiero beber los besos de tu boca,
             G
    como si fueran gotas de rocío
                 A                 A7
    Y allí en el aire dibujar tu nombre
                    D
    junto con el mío
    
    CAPÓ
             D
    Y en un acorde dulce de guitarra
             G
    pasear locuras en tus sentimientos
               A                   A7
    y en el sutil abrazo de la noche
                      D
    
  • Hola gente bueno antes que nada saque este intro a oido, a mi gusto
    suena bastante bien. los tiempos los sacan escuchando el tema.
    saludos. M4TT
    
    es del video de Thalia con Pedro Capo
    
    Estoy enamorad
    intro
    
    
    e|--------------10----------------------------------
    B|--7/10-----10----10/12-------12-10-12-10-12-10----
    G|---------11----------------12---------------------
    D|--------------------------------------------------
    A|--------------------------------------------------
    E|--------------------------------------------------
    
    
    e|--------------------------------------------------|
    B|---7-8-8-7----------------------------------------|
    G|-9---------9-7-9/11-------------------------------|
    D|--------------------------------------------------|
    A|--------------------------------------------------|
    E|--------------------------------------------------|
    
    
    e|--------------10----------------------------------
    B|--7/10-----10----10/12-------12-10-12-10-12-10----
    G|---------11----------------12---------
  • e|----------------/10--7---5/7--5--7--5--7--5----
    B|--7/10---7-10----------------------------------
    G|---------------------7---6----6--6--6--6--6----
    D|-----------------------------------------------
    A|-----------------------------------------------
    E|-----------------------------------------------
    
    e|---0--2--/3--3--2--0-----------------|
    B|-----------------------/3---5/7------|
    G|---0--2--/4--4--2--0-----------------|
    D|-----------------------/4---5/7------|
    A|-------------------------------------|
    E|-------------------------------------|
    
    
    THALíA
             D                                 G
    Quiero beber los besos de tu boca, como si fueran gotas de rocío
                A                 A7                  D
    Y ahí en el aire dibujar tu nombre junto con el mío
    
  • +
    ¡Colabora con nosotros!
    Envíanos tu versión de esta canción

Letra de Estoy Enamorada
THALIA
Quiero beber los besos de tu boca, como si fueran gotas de rocío
Y ahi en el aire dibujar tu nombre junto con el mío
PEDRO CAPÓ
Y en un acorde dulce de guitarra
pasear locuras en tus sentimientos
y en el sutil abrazo de la noche sepas lo que siento
Estoy enamorada/o, y tu amor me hace grande eh y eh
Estoy enamorada/o, y que bien que bien me hace amarte
PEDRO CAPÓ
Dentro de ti quedarme en cautiverio
para sumarme el aire que respiras
y en cada espacio unir mis ilusiones junto con tu vida
THALIA
Que si naufrago me quede en tu orilla
que de recuerdos solo me alimente
y que despierte del sueño profundo solo para verte…
Estoy enamorada/o, y tu amor me hace grande eh y eh
Estoy enamorada/o, y que bien que bien me hace amarte...
(DUETO)
Voy a encender el fuego de tu piel callada
mojaré tus labios de agua apasionada
para que dejamos sueños de la nada
THALIA
que estoy enamorada..
PEDRO CAPÓ
que estoy enamorado
(DUETO)
y tu amor me hace grande...eee..yee
que estoy enamorada y que bien
que bien me hace amarte
THALIA
que estoy enamorada..
PEDRO CAPÓ
que estoy enamorado
(DUETO)
y tu amor me hace grande...eee..yee
que estoy enamorada y que bien
que bien me hace amarte




[Estoy Enamorada chords][Estoy Enamorada cifra]
© LaCuerda.net · aviso legal · privacidad · es · en · pt · contacto