Acordes de Guitarra » T »Tamara Castro » Conjuro (Tab)
  • Letra y Acordes
    Introducción: Am - B7 - Em  x 2
    
             Em                   Am
    Una noche brotó en mi guitarra
              B7                    Em
    esta zamba que hoy canto por vos
               Em - D - C - B7
    y al tocarla mis manos calladas
         Am   G                        B7  Em
    sentí que temblaban, temblaban de amor
               Em - D - C - B7
    y al tocarla mis manos calladas
         Am   G                        B7  Em
    sentí que temblaban, temblaban de amor
    
    
    Caprichoso ramal del destino / que a mi vida te quiso traer
    como el gajo de un sueño perdido / que en tus labios tibios yo vi florecer
    como el gajo de un sueño perdido / que en tus labios tibios yo vi florecer
    
    
  • Tablatura
    e|-----------------------------------------|
    b|-3/5-5---1-----------1-3---0-----------0-|
    g|---------2---2-----2-----------0-----0---|
    D|-----------2---2-0-----------0---4-2-----|
    A|-------0---------------------------------|
    E|-------------------------3---------------|
    
    
    e|---------------------------------------------------------12*-|
    b|-1---------------0-------------------------------12*---------|
    g|---2---2-------2---0---------------------------------12*-----|
    D|---2-2-------1-----2-2/5-5-5h7-4h5p4-2-4-1/2-1-2-------------|
    A|---0-----3-2-------2---------------------------2-------------|
    E|-------------------0---------------------------0-------------|
    
    
    
        Em            (E7)   Am
    Una noche broto en mi guitarra
         B7                      Em
    
  • +
    ¡Colabora con nosotros!
    Envíanos tu versión de esta canción

Letra de Conjuro
Una noche brotó en mi guitarra
esta zamba que hoy canto por vos
y al tocarla mis manos calladas
sentí que temblaban, temblaban de amor
y al tocarla mis manos calladas
sentí que temblaban, temblaban de amor
Caprichoso ramal del destino / que a mi vida te quiso traer
como el gajo de un sueño perdido / que en tus labios tibios yo vi florecer
como el gajo de un sueño perdido / que en tus labios tibios yo vi florecer
Que se parta en dos mi guitarra
que se quiebre en pedazos mi voz
si estos versos sentidos que digo
no son el latido de mi corazón
y si miento que venga el olvido
y lleve esta zamba que hoy canto por vos
Mariposa fugaz de la suerte / que al traerte me quiso alumbrar
con un cielo de luz transparente / tus ojos ausentes me hicieron soñar
con un cielo de luz transparente / tus ojos ausentes me hicieron soñar
Como dicen que todo está escrito / hasta el día del juicio final
seguiré la señal del destino / serás mi camino, mi pura verdad
seguiré la señal del destino / serás mi camino, mi pura verdad.
Que se parta en dos mi guitarra / que se quiebre en pedazos mi voz
si estos versos sentidos que digo / no son el latido de mi corazón
y si miento que venga el olvido / y lleve esta zamba que hoy canto por vos
Transcripto por: Adriana Baliño y Jorge Altamira
altamirajorge@yahoo.com.ar



© LaCuerda.net · aviso legal · privacidad · contacto