Acordes de Guitarra » T »Tam Tam Go » Ojalá estuvieras aquí (Tab)

Ojalá estuvieras aquí
Tam Tam Go

  • Tablatura
          E     B       E           B       E
    e|--------4---7------5p4---------4------------------|
    B|----4h5---4----5p4---------4h5---5-4--(5)/7-5-----|
    G|--------------------------------------------------|
    D|--------------------------------------------------|
    A|--------------------------------------------------|
    E|--------------------------------------------------|
    
    
    e|--------4---7------5p4---------4------------------|
    B|--5p4h5---4----5p4-------5p4h5---5-4--(5)/7-5-----|
    G|--------------------------------------------------|
    D|--------------------------------------------------|
    A|--------------------------------------------------|
    E|--------------------------------------------------|
    
    
    E               B     E
    Así empieza un nuevo día
    mojándome a pleno sol
    
  • +
    ¡Colabora con nosotros!
    Envíanos tu versión de esta canción

Letra de Ojalá estuvieras aquí
Así empieza un nuevo día
mojándome a pleno sol
así empieza una canción
rescatada del olvido.
Y ojalá estuvieras aquí
para poder empezar de cero
ojalá estuvieras aquí
para crear un mundo entero
ojalá estuvieras aquí
para dibujarte hoy con mis dedos
ojalá estuvieras aquí
para sentir otra vez tu deseo.
(Riff 1)
Ojalá estuvieras aquí
para borrar de tu cabeza el miedo
ojalá pudieras volver
decirte que hoy ya no se acaba el tiempo
ojalá estuvieras aquí
para partirnos una vez más el pecho
ojalá pudiera sentir
que estoy contigo allí
y allí no hay bien.
Así acabará este día
empapado en tus olores
así acaba esta canción
para un as de corazones.
Y ojalá estuvieras aquí
para poder empezar de cero
ojalá estuvieras aquí
para crear un mundo entero
ojalá estuvieras aquí
para dibujarte hoy con mis dedos
ojalá estuvieras aquí
para sentir otra vez tu deseo.
(Riff 1)
Ojalá estuvieras aquí
para borrar de tu cabeza el miedo
ojalá pudieras volver
decirte que hoy ya no se acaba el tiempo
ojalá estuvieras aquí
para partirnos una vez más el pecho
ojalá pudiera sentir
que estoy contigo allí
y allí no hay bien.
Riff 1
Cualquier corrección o comentario que queráis hacer, enviádmelas a
frang32@yahoo.es



© LaCuerda.net · aviso legal · privacidad · contacto
DINAMICO