Acordes de Guitarra » T »Tam Tam Go » Atrapados en la red (Tab)

Atrapados en la red
Tam Tam Go

Letras, Acordes y Tabs para Guitarra, Bajo y Ukulele

  • Intro: F#m - Bm - E - A  (escuchenlo para que les salga bien) 4 veces
    
    
    
    Bm          F#m        Bm             F#m
     De tanto buscar halle,   en una direccion de internet
    Bm           C#m                 E                 D
     un foro de forofos de pelis de terror y de serie B
    Bm               F#m      Bm                F#m
     y ahi conoci a una mujer,  que me escribio amor solo en ingles
    Bm             C#m                      E              D
     su nombre me sedujo, y el resto de su ser me lo imagine
            E         Bm        C#m          D     E
     para que quiero mas si me da, lo que quiero tener tiriro
    
    A           Bm       F#m        E
    te di todo mi amor arrobalo punto com
    A             Bm      F#m        E
    y tu me has roba roba robado la razon
    A           Bm            F#m        E
    
  • F#m                      Bm              F#m   
    De tanto buscar halle,   en una direccion de internet
    Bm               C#m                 E              D   E   
    un foro de forofos de pelis de terror y de serie B
    F#m                         Bm                    F#m   
    y ahi conoci a una mujer,  que me escribio amor solo en ingles
    Bm               C#m                     E               D   
    su nombre me sedujo, y el resto de su ser me lo imagine      
    E         Bm        C#m         D             E
    para que quiero mas si me da, lo que quiero tener tiriro   
    
    A           Bm       F#m        E
    te di todo mi amor arrobalo punto com   
    A             Bm      F#m        E
    y tu me has roba roba robado la razon 
    A           Bm            F#m        E
    mandame un email que te abrire mi buzon      
    A            Bm            F#m      E      A   Bm  F#m  
    y te hago un rinconcito en el archivo de mi corazon   
    E      D
    
  • Enzo F.
     
    Tam Tam Go/Atrapados en la red
    
        
    Intro :
         
        e ||--9--9-----7-7----4-5---2--------2-------º
        B ||--10-10----7-7----5-5---2------5-2-------º
        G ||-------------------------------4---------º(4 veces)
        D ||-----------------------------------------º
        A ||-----------------------------------------º
        E ||-----------------------------------------º
        
    
    
            One, two
          
             F#m         Bm          C#m        Bm  F#m
        e ||-----------|----------|----------|------------
    
  •     B ||----7.-7.--x-x---7.-7.--x---9h10p9--------------------------
        G ||:---------------------------9-------11----9h11--------------
        D ||:-----------------------------------------------------------
        A ||------------------------------------------------------------
        E ||------------------------------------------------------------
         /
    
    
    Base1:
    
         \   F#m         Bm7        C#m7        F#m
        e ||-----------|----------|----------|------------
        B ||-------2.--|------3.--|-------5--|---2-0------
        G ||:----2-----|----2-----|-----4----|------2-----
        D ||:----------|----------|---6------|------------
        A ||----4------|---2------|----------4.-----------
        E ||-----------|----------|----------|------------
         /
    
            Intro x4
    
  • Bm C#m F#m (arpegiado, de arriba a abajo,
                desde la primera hasta la
                tercera cuerda.)
                                x 4 veces
    
    
    1.---------|------|
    2.-2h3-----|------|
    3.-----4-2-|--2-4-|
    4.---------|-4----| 
    5.---------|------|
    6.---------|------| x 4 veces.
    
    
    1.-------------|-------------------|
    2.-------------|----------10-------|
    3.-------------|----10-12----12-10-|
    4.-12-10----10-|-12----------------|  
    5.-------12----|-------------------|
    6.-------------|-------------------|
    
  • +
    ¡Colabora con nosotros!
    Envíanos tu versión de esta canción

Letra de Atrapados en la red
De tanto buscar halle, en una direccion de internet
un foro de forofos de pelis de terror y de serie B
y ahi conoci a una mujer, que me escribio amor solo en ingles
su nombre me sedujo, y el resto de su ser me lo imagine
para que quiero mas si me da, lo que quiero tener tiriro
te di todo mi amor arrobalo punto com
y tu me has roba roba robado la razon
mandame un email que te abrire mi buzon
y te hago un rinconcito en el archivo de mi corazon
de mi corazon
Salimos solo una vez a navegar juntos por la red
saque mi visa oro y ella prometio que seria fiel
nunca tocare su piel nunca podre estar donde este
cuando el amor es ciego el corazon no miente a unos ojos que no ven
para que quiero mas si me da, lo que quiero tener tiriro
te di todo mi amor arrobalo punto com
y tu me has roba roba robado la razon
mandame un email que te abrire mi buzon
y te hago un rinconcito en el archivo de mi corazon
de mi corazon
Ohh para que quiero mas si me da, lo que quiero tener tiriro
te di todo mi amor arrobalo punto com
y tu me has roba roba robado la razon
mandame un email que te abrire mi buzon
y te hago un rinconcito en el archivo de mi corazon
te di todo mi amor arrobalo punto com
y tu me has roba roba robado la razon
mandame un email que te abrire mi buzon
y te hago un rinconcito en el archivo de mi corazon
ciberpirata de amor, me has abordado a traicion
ciberpirata de amor, me has abordado a traicion




[Atrapados en la red chords][Atrapados en la red cifra]
© LaCuerda.net · aviso legal · privacidad · es · en · pt · contacto