Acordes de Guitarra » S »Sureste » Sencilla y fragil (Tab)

Sencilla y fragil
Sureste

Letras, Acordes y Tabs para Guitarra, Bajo y Ukulele

  • E|-3----|3----|3----
    B|----3-|---3-|---3-
    G|---0--|--0--|--0--  
    D|--0---|-0---|-0---
    A|------|-----|-----
    E|-3----|2----|0----
    
    RIFF 3                     LUEGO RIFF 2
    E|-3/5\3-3----------3----
    B|----------3-3/5\3----3-
    G|---------0----------0--
    D|--------0----------0---
    A|-----------------------
    E|-------2----------0----
    
    La estrofa comienza cuando termina la ultima nota del RIFF 2.
                   L
    Te puedo imaginar 
             M 
    en la oscuridad 
    
  •         Em           D            C          G            F#
    E|-0----------|-------------|-----------|-3----------|--2--------|
    A|------------|-------------|-3---------|------------|-----------|
    D|------------|--0-----0----|-------2---|------------|----2------|
    G|-------0----|------2---2--|-----0---0-|---0--------|-----------|
    B|-----0---0--|----3--------|---1-------|-----3------|------2----|
    e|---0--------|-------------|-----------|------------|-----------|
    
    Este arpegio se repite 2 veces y a la segunda vez a la hora que se toca
    Em y D se tocan estas notas.
    
    G|-7/97---|
    B|---------|
    
    
    
    Em              D
     Te puedo imaginar
              C
     En la oscuridad
    
  • +
    ¡Colabora con nosotros!
    Envíanos tu versión de esta canción

Letra de Sencilla y fragil
RIFF 3 LUEGO RIFF 2
La estrofa comienza cuando termina la ultima nota del RIFF 2.
L
Te puedo imaginar
M
en la oscuridad
K L M
que rodea a mi habitación,
L
comienzo a experimentar
M
tus tiernos besos
K L N O
que penetran mi interior.

N O P
EN EL CORO RASGUEA LA NOTA HACIA ANAJO Y LUEGO PUNTEA HACIA ARRIBA.
Tu saliva corre en mis venas,
Tus dulces labios alivian mis penas,
Mis penas.
Es difícil controlar
esto que siento
que no me deja descansar,
hoy te digo mi verdad
que me muero
si en mi vida tu no estas.
Tercera estrofa igual que la primera.
Ven a mi no te resistas
que me haces daño
si mi vida no es tu vida,
hoy te entrego mi canción
sencilla y frágil
como lo es mi corazón.
CON DISTORSION.
Tu saliva corre en mis venas,
tus dulces labios alivian mis penas...
ESPERO QUE LES GUSTE, HAY ALGUNOS ARREGLOS
QUE NO ESTAN IDÉNTICOS PERO SUENAN MUY BIEN.
DUDAS, CORRECCIONES, SUGERENCIAS ESCRIBIR A
wapmrock@awebo.com

Video de Sencilla y fragil
[]




[Sencilla y fragil chords][Sencilla y fragil cifra]
© LaCuerda.net · aviso legal · privacidad · es · en · pt · contacto