Acordes de Guitarra » S »los Suaves » Pobre Jugador (Tab)

Pobre Jugador
los Suaves

Letras, Acordes y Tabs para Guitarra, Bajo y Ukulele

  • [RIFF A
        A    C    G    E    A  C  G  E  E.............
    E ---------------------------------------------------|
    B ---------------------------------------------------|
    G -------5-x---------------5-------------------------|
    D --7-x--5-x--5-x--2-x--7--5--0--2--2-2-2-2-2-2-2-2--|
    A --7-x--3-x--5-x--2-x--7--3--0--2--2-2-2-2-2-2-2-2--|
    E --5-x-------3-x--0-x--5-----0--0--0-0-0-0-0-0-0-0--|
    
                                             FIN A] 
        A    C    G    E    A  C  G  E  
    E ----------------------------------------------|
    B ----------------------------------------------|
    G -------5-x---------------5--------------------|
    D --7-x--5-x--5-x--2-x--7--5--0--2--------------|
    A --7-x--3-x--5-x--2-x--7--3--0--2--------0--3--|
    E --5-x-------3-x--0-x--5-----0--0--0--3--------|
    
    [ RIFF B                                                           FIN B ]   
        F   G   F   G   C   C  D A   A  E  F  G  G .............
    
  • +
    ¡Colabora con nosotros!
    Envíanos tu versión de esta canción

Letra de Pobre Jugador
ARREGLOS
EMPIEZA CON EL [RIFF A] 2 VECES
DESPUES LA SECUECIA SIEMPRE ES LA MISMA:
[RIFF A]
[RIFF B]
[RIFF A] CON LOS ARREGLOS
LA ULTIMA PARTE QUE ES DONDE HACE UN PEDAZO DE SOLO QUE NO HE SACADO PRIMERO ES:
[RIFF A]
DESPUES HASTA EL FINAL




[Pobre Jugador chords][Pobre Jugador cifra]
© LaCuerda.net · aviso legal · privacidad · es · en · pt · contacto
DINAMICO