Acordes de Guitarra » S »los Suaves » Nena, te voy a dejar (Tab)

Nena, te voy a dejar
los Suaves

Letras, Notas, Punteos, Tablaturas y Acordes de Guitarra (Tabs & Chords)

  • Tablatura
    |----------------------------------------|
    |----------------------------------------|
    |----------------------------------------|
    |---5/7----------------------------------|
    |--------7--8--------7--------5----------|
    |--------------7--8-----7--8-----3--5/7--|
    
    INTRO
    |-----------5-----------3-------1-------3-----------|
    |-------------5---------3-------1---------3---------|
    |---------5-----5---------------------------3-------|
    |-------7-------------5-------3-------5-------5-----|
    |-----7-------------5-------3-------5-----------5---|
    |---5-------------3-------1-------3-----------------|
    
    VERSO
    (nena te....)
    A5 G5 F5 
    |-----------------|
    |-----------------|
    
  • +
    ¡Colabora con nosotros!
    Envíanos tu versión de esta canción

Letra de Nena, te voy a dejar
VERSO
(nena te....)
ESTRIBILLO (SÓLO SE TOCA UNA VEZ Y LUEGO VUELVE A A5 G5 F5)
(y en el fondo...)



© LaCuerda.net · Aviso Legal · Privacidad