Acordes de Guitarra » S »Spinetta Jade » Dale Gracias (Tab)

Dale Gracias
Spinetta Jade

Letras, Acordes y Tabs para Guitarra, Bajo y Ukulele

  •        A#m#75 (Am6#5) G#m#75 (x2) D9/F#   (arpegio)
    
    
    Fmaj7
    Abre tus viejas cosas
    G#aug/A               Dm7
    junta tu maquillaje alguien se acerca
    E7addG   Am7         Em7
    cierra los ojos, siéntate
    Am                         Em7
    dale gracias por estar
    Am                        Em7             Am      Am7
    dale gracias por estar cerca de ti
    
    Fmaj7
    sobre los viejos muebles
    G#aug/A
    prende otro cigarrillo
    Dm7              E7addG   Am          Em7
    esta poesía viene a buscarte y además
    
  • Dm7(#5): 10x101011x
    C#m6(#5): 9x8910x
    Cm7(#5): 8x889x
    Bm6(#5): 7x678x
    A#m7(#5): 6x667x
    Am6(#5): 5x456x
    G#m7(#5): 4x445x
    G#m7: 4x444x
    C6/9(b5): x32232
    Fmaj7: xx3210
    Am(maj7): x06554
    Dm7: x57565
    Em7: x7578x
    Am7: 575555
    Am7/9: x05500
    Dm7/11: x55565
    Ab7(#5): 434x5x
    Am7(#5): 5x556x
    Bm7/11: x22232
    Bm7/11(#5): x22233
    
  • E  ------6----6-----5-----5------4-----4-----3-------------
    B -----6----6-----5-----5-----4------4-----3------7-------7-
    G --5-----5-----3-----3-----3-----3------1-------6-------6--
    D-----------------------------------------------6-------6---
    A -5-----5-----4-----4----3------3------2-------------------
    E  --------------------------------------------6-------6---
    
    e-------------------------------------------5--------
    B-------------6--------5-----4----5- 4---- -x--------
    G----------5---------4-------4--------------5--------
    D-------4----------4---------4--------------4--------
    A----------------------------4--------------5--------
    E-----5-----------4----------4-----------------------
    
    Se repite una vez mas toda la secuencia
    y se pasa a la 1era estrofa:
    
     Fmaj7                   Cdimm 5ta aum        D-7
    Abre tus viejas cosas ….junta tu maquillaje  alguien se acerca
    
    
  • +
    ¡Colabora con nosotros!
    Envíanos tu versión de esta canción

Letra de Dale Gracias
Abre tus viejas cosas
junta tu maquillaje alguien se acerca
cierra los ojos, siéntate
dale gracias por estar
dale gracias por estar cerca de ti
sobre los viejos muebles
prende otro cigarrillo
esta poesía viene a buscarte y además
dale gracias por estar
dale gracias por estar cerca de ti
este ensueño es un silbido más en el viento
y un guerrero no detiene jamás
su marcha
arpegio con tarareo: G6 Em9/F# C11/F Dm11b5/G#
Bmaj7sus2/G# Am7#5/G Amaj9
puedes hallar la jungla
entre estos edificios puedes rentarla o bien destruirla
y además
dale gracias por estar
por crecer y engendrar
cerca del bien que gozaste
y además
dale gracias al ángel
por crecer y por luchar
cerca del bien que gozaste
y además
dale gracias al ángel
dale gracias por estar cerca de ti
es inútil que pretendas brillar, con tu historia personal
recuerda que, un guerrero no detiene jamás su marcha
ACORDES




[Dale Gracias chords][Dale Gracias cifra]
© LaCuerda.net · aviso legal · privacidad · es · en · pt · contacto