Tablatura para Bajo de Soda Stereo: Sueles Dejarme Solo
Conexión · Inscripción
Letras y Acordes
Pantalla Completa
Imprimir
Versión Texto
Añadir Favorito
Otras Versiones

Mostrar Diagramas
Desfile Automático
Formato del Texto


Sueles Dejarme Solo(BAJ)

Soda Stereo

calidad:
soda0514
AUTOR: Gustavo Cerati
ALBUM: Cancion Animal (1990)
Enviado por Pappo
El Bajo empieza cuando empieza a tocar la batería
es así


G---------------------------------------------------
D---------------------------------------------------
A------7----3-3--5-5---------7----3-3--5-5----------
E-0-0-------------------0-0-------------------------


G---------------------------------------------------
D---------------------------------------------------
A------7----3-3--5-5---------7----3-3--5-5----------
E-0-0-------------------0-0-------------------------

G---------------------------------------------------
D---------------------------------------------------
A------7----3---5----------7----3-3--5-5------------
E-0-0-------------------0-0-------------------------

x3
G---------------------------------------------------
D---------------------------------------------------
A------7----3-3--5-5---------7----3-3--5-5----------
E-0-0-------------------0-0-------------------------


Luego en el estribillo cambia a:

x1
G----------------------------------------
D----------------------------------------
A00-00-22-22--44-44--------------3-------
E--------------------22-22-22-22---------

Así durante todo el tema
esos tonos del estribillo los hace todos seguidos
no rápidos pero salud hermanos
Este fichero es trabajo propio de su transcriptor y representa su interpretación personal de la canción. El material contenido en esta página es
para exclusivo uso privado, por lo que se prohibe su reproducción o retransmisión, así como su uso para fines comerciales.

© LaCuerda.net · Aviso Legal · Privacidad