Acordes de Guitarra » S »Skay Beilinson » Territorio Canibal (Tab)

Territorio Canibal
Skay Beilinson

Letras, Acordes y Tabs para Guitarra, Bajo y Ukulele

  • INTRO:Am Dm
    
    Am Dm
    Cuerpos
    estoy rodeado de cuerpos
    por todos lados hay cuerpos
    es una invasión
    Cuerpos
    millones de cuerpos
    enjambres voraces
    super población!
    
    inter:F G F G F G
    
    Am Dm
    Cuerpos
    que no sienten nada
    que vagan perdidos
    sedientos de amor
    
    
  • INTRO:A5-A#5
    
        A5            A#5
    
    E|--------|   E|--------|
    B|---10---|   B|---11---|
    G|---9----|   G|---10---|
    D|---7----|   D|---8----|
    A|--------|   A|--------|
    E|--------|   E|--------|
    
    A5-A#5
    Cuerpos
    estoy rodeado de cuerpos
    por todos lados hay cuerpos
    es una invasión
    Cuerpos
    millones de cuerpos
    enjambres voraces
    super población!
    
  • E—17/5
    
    INTRO
    -----
    
    E-55-88---55-88---55-88---11—33-
    
    Verso 1
    -------
    
    E-55-88---55-88---55-88---11—33-  esto se toca todo el verso
    
    Puente
    -------
    
    E-1(X12)-3-1-3  esto se toca 4 veces
    
    Verso 2
    -------
    
    E-55-88---55-88---55-88---11—33-  3 veces
    
    
    E-55-88---55-88---55-88---55-88 a la cuarta va esto
    
    Estribillo (q pedazo de estribo!! sin palabras flaco..sos un marcianoo
    
    
    G---------------------------------------------------------
    D---------------------------------------------------------
    A-3(X8)---------------------------------------------------
    E------3(X8)-10(X15)-12-13(X16)---55-88—55-88-55-88-55-88-
    
    G---------------------------------------------------
    D------------------------------15-14-12-10-9-7-5-3--
    A-3(X8)---------------------------------------------
    E------3(X8)-10(X15)-12-13(X16)---------------------
    
    
    REPITE INTRO X2 Y LUEGO HACE ESTO
    
    G----------------------------
    D----------------------------
    A-----6-------6--------8---8-  X4
    E-8-8---8---8---8-8—-8---8---
    
    VERSO (C
  • +
    ¡Colabora con nosotros!
    Envíanos tu versión de esta canción

Letra de Territorio Canibal
Cuerpos
estoy rodeado de cuerpos
por todos lados hay cuerpos
es una invasión
Cuerpos
millones de cuerpos
enjambres voraces
super población!
Cuerpos
que no sienten nada
que vagan perdidos
sedientos de amor
Nuevos envases de competición
bajo el neón
lucen prefectos
raras especies para tu colección
son un montón de ofertas!
Cuerpos
mercado de cuerpos
chatarra de cuerpos
en liquidación
Cuerpos
que someten a cuerpos
para ser consumidos
en el banquete final
tal vez yo sea uno mas
en esta feria…
PARA TODA LA TRIBU DE MI CALLE!!!!!
ARIEL GGZ




[Territorio Canibal chords][Territorio Canibal cifra]
© LaCuerda.net · aviso legal · privacidad · es · en · pt · contacto
DINAMICO