Acordes de Guitarra » S »Skay Beilinson » El infierno está encantador esta noche (Tab)

El infierno está encantador esta noche
Skay Beilinson

Letras, Acordes y Tabs para Guitarra, Bajo y Ukulele

  • Intro: E
    
    E|---------------------|-----------------------------------------------|
    B|(12)-----------------|-9-10-12~---10-9-------------10-12-10-9--------|
    G|----9-9~-------------|-----------------9-7------7-9-----------9-9-7~-|
    D|--------9-7-6--------|---------------------9~-9----------------------|
    A|--------------7-5-7~-|-----------------------------------------------|
    E|---------------------|-----------------------------------------------|
    
    E|--7-9-10~-----7-9-10~----7-9-10-9-7-4-5-7-----|
    B|------------------------------------------5~--|
    G|----------------------------------------------|
    D|----------------------------------------------|
    A|----------------------------------------------|
    E|----------------------------------------------|
    
    
    E            E                 E            E
    Son por acaso ustedes, hoy, un publico respetable?
    E            E                 E            E
    
  • +
    ¡Colabora con nosotros!
    Envíanos tu versión de esta canción

Letra de El infierno está encantador esta noche
Son por acaso ustedes, hoy, un publico respetable?
pueden acaso beber el vino, por ustedes envasado?
puede alguien decirme? -me voy a comer tu dolor!-
y repetirme -voy a salvarte esta noche-
que el infierno esta encantador
Este infierno esta embriagador
Esta noche esta encantador
tu infierno esta encantador… Esta noche!
Por que no te dejas de pensar en labios que besan frio
para cerrar un ojo y ver cuantos cuernos tiene el diablo
puede alguien decirme? -me voy a comer tu dolor!-
y repetirme -voy a salvarte esta noche-
que el infierno esta encantador
Este infierno esta embriagador
Esta noche esta encantador
tu infierno esta encantador… Esta noche!
Son por acaso ustedes, hoy, un publico respetable?
pueden acaso beber el vino, por ustedes envasado?
puede alguien decirme? -me voy a comer tu dolor!-
y repetirme -voy a salvarte esta noche-
que el infierno esta encantador
Este infierno esta embriagador
Esta noche esta encantador
tu infierno esta encantador… Esta noche!
FIN.




[El infierno está encantador esta noche chords][El infierno está encantador esta noche cifra]
© LaCuerda.net · aviso legal · privacidad · es · en · pt · contacto