Acordes de Guitarra » S »Ska-P » Animales De Laboratorio (Tab)

Animales De Laboratorio
Ska-P

Letras, Acordes y Tabs para Guitarra, Bajo y Ukulele

  • SKA  Dm
          Buenas noches, bienvenido al infierno animal
          Pasen al laboratorio, les va a impresionar.
    
    SKA  Dm   RIFF D#   SKA  Dm  A G#  (x2)
    
    SKA  Dm
          En el nombre de la ciencia y la investigación
          Prueba Draize LD50 o la vivisección.
    
        joder... de nuevo a hacer rayitas!
    
         --------------------------
         --------------------------
         --------------------------
         5-0-3-5-6-5-3-5----3-5-5--
         -----------------5-----3--
         --------------------------
    
    SKA  Dm   RIFF D#   SKA  Dm  A G#
    
  • |-----------------------------------|
    |-----------------------------------|
    |-----------------------------------|
    |----7----6--------5----------------|
    |-5----5---------5---5--8----7-5-3--|
    |-----------------------------------|
    
    Dm
    Buenas noches, bienvenido al infierno animal
    pasen al laboratorio, les va a impresionar.
    
     Riff 1:
    (aki toka algo el teclado, la guitarra toca al
    fondo un ritmo ska)
      Dm                       D#
    |-----------------------------------|
    |-----------------------------------|
    |-----------------------------------|
    |-----------------------------------|
    |-5--5-6-5-----5--5-6-5----6--------|
    
  • |-----------------------------------|
    |-----------------------------------|
    |-----------------------------------|
    |----7----6--------5----------------|
    |-5----5---------5---5--8----7-5-3--|
    |-----------------------------------|
    
    Dm   (SIN DISTORSION)
    Buenas noches, bienvenido al infierno animal
    pasen al laboratorio, les va a impresionar.
    
     Riff
    (con distorsion y muteado)
    
    
      Dm                       D#
    |-------------------------------------|
    |-------------------------------------|
    |-------------------------------------|
    |-------------------------------------|   x2
    
  • intro
    G|----------|--------------|
    D|---7---6--|----7---------|
    A|-5---5----|--5---5-------|
    E|----------|--------4/9/0-|
    
    
    empiezan todos (x5)
    G|------------------|
    D|------------------|
    A|----5-5-54-45-5-6-|
    E|9/0---------------|
    
    VERSo(x4)
    G|---------------|
    D|---------------|
    A|-5-5-54-45-5-6-|
    E|---------------|
    
    cortesito
    G|-------------------------|---------------|---------------|
    D|-5-----5/6/5---5-----5---|---------------|---------------|
    A|---5-8-------8---5/8---4-|-5-5-54-45-5-6-|-5-5-54-45-5-6-|
    E|-------------------------|---------------|---------------|
    
    VERSo(x4)
    G|---------------|
    D|---------------|
    A|-5-5-54-45-5-6-|
    E|---------------|
    
    cortesito
    G|-------------------------|---------------|---------------|
    D|-5-----5/6/5---5-----5---|---------------|---------------|
    A|---5-8-------8---5/8---4-|-5-5-54-45-5-6-|-5-5-54-45-5-6-|
    E|-------------------------|---------------|---------------|
    
    estribillo
    G|------------------|----------------------------------|
    D|-------------
  • intro
    G|-------|--------|-------|--------|--------|
    D|--7-6--|--------|--7-6--|--------|--------|
    A|5--5---|--------|5--5---|--------|5-------|
    E|-------|--------|-------|--------|--------|
    
    Verso 1 (es sin voz)
    
    G|--------|------|x5
    D|--------|------|
    A|5-5-5432|5-5--6|
    E|--------|------|
    
    Verso 2 (es con voz)
    
    G|--------|------|x4
    D|--------|------|
    A|5-5-5432|5-5--6|
    E|--------|------|
    
    Interludio
    
    G|--------|--------|
    D|50356534|-035----|
    A|--------|-----4--|
    E|--------|--------|
    
    Estribillo
    
    G|--------|--------|
    D|--------|--------|
    A|--------|1---3-13|
    E|3---3---|-----3--|
    
    G|---0----|---0----|---0----|--------|
    D|023-----|023-----|023-----|--5---7-|
    A|----1-13|-----013|----1310|--------|
    E|-----3--|----3---|--------|33-355-5|
    
    
    Intro/Verso 1/verso 2/interludio/verso 1/estribillo
    Intro/verso 2/interludio/verso 1/estribillo
  • +
    ¡Colabora con nosotros!
    Envíanos tu versión de esta canción

Letra de Animales De Laboratorio
Buenas noches, bienvenido al infierno animal
Pasen al laboratorio, les va a impresionar.
En el nombre de la ciencia y la investigación
Prueba Draize LD50 o la vivisección.
joder... de nuevo a hacer rayitas!
En el nombre del progreso, civilización
Sufrimiento y agonía, muerte, violación.
Ex-pe-ri-mentación.
¡OI!¡OI!¡OI!¡OI! Brutalidad.
¡OI!¡OI!¡OI!¡OI! Aniquilar.
¡OI!¡OI!¡OI!¡OI! ¿Holocausto o ciencia en el reino animal?
¡OI!¡OI!¡OI!¡OI! Brutalidad.
¡OI!¡OI!¡OI!¡OI! Exterminar.
¡OI!¡OI!¡OI!¡OI! Yo me pregunto quién es más irracional.
¡OI!¡OI!¡OI!¡OI! Brutalidad.
¡OI!¡OI!¡OI!¡OI! Aniquilar.
¡OI!¡OI!¡OI!¡OI! ¿Holocausto o ciencia en el reino animal?
¡OI!¡OI!¡OI!¡OI! Brutalidad.
¡OI!¡OI!¡OI!¡OI! Exterminar.
¡OI!¡OI!¡OI!¡OI! Yo me pregunto quién es más irracional.
Animales mutilados, vísceras, dolor,
Cráneos, sangre y alaridos, carne de cañón.
Si te importa esta movida y quieres ser su voz
Ponte en guardia y dales caña, somos más de dos.
Ex-pe-ri-mentación.
¡OI!¡OI!¡OI!¡OI! Brutalidad.
¡OI!¡OI!¡OI!¡OI! Aniquilar.
¡OI!¡OI!¡OI!¡OI! ¿Holocausto o ciencia en el reino animal?
¡OI!¡OI!¡OI!¡OI! Brutalidad.
¡OI!¡OI!¡OI!¡OI! Exterminar.
¡OI!¡OI!¡OI!¡OI! Yo me pregunto quién es más irracional.
¡OI!¡OI!¡OI!¡OI! Brutalidad.
¡OI!¡OI!¡OI!¡OI! Aniquilar.
¡OI!¡OI!¡OI!¡OI! ¿Holocausto o ciencia en el reino animal?
¡OI!¡OI!¡OI!¡OI! Brutalidad.
¡OI!¡OI!¡OI!¡OI! Exterminar.
¡OI!¡OI!¡OI!¡OI! Yo me pregunto quién es más irracional.
se repite el intro
pa completar:
*Hemos elargado el celebro de este gato
*Para poder verter sustancias tóxicas
*Y comprobar la reacción del sistema nervioso.
*Le provoca una terrible y lenta agonía.
*Vivisección : separación de los músculos en vivo.
*Se práctica sobre este mono.
*Ven ese rostro casi inhumano.
*Está sufriendo el peor de los tormentos.
*Sus ojos llenos de pánico y de clemencia.
¡Basta ya ! ¡Basta ya !
¡OI!¡OI!¡OI!¡OI! Brutalidad.
¡OI!¡OI!¡OI!¡OI! Aniquilar.
¡OI!¡OI!¡OI!¡OI! ¿Holocausto o ciencia en el reino animal?
¡OI!¡OI!¡OI!¡OI! Brutalidad.
¡OI!¡OI!¡OI!¡OI! Exterminar.
¡OI!¡OI!¡OI!¡OI! Yo me pregunto quién es más irracional.
¡OI!¡OI!¡OI!¡OI! Brutalidad.
¡OI!¡OI!¡OI!¡OI! Aniquilar.
¡OI!¡OI!¡OI!¡OI! ¿Holocausto o ciencia en el reino animal?
¡OI!¡OI!¡OI!¡OI! Brutalidad.
¡OI!¡OI!¡OI!¡OI! Exterminar.
No escondais el cruel asesinato
En el cruel asesinato, en el cruel asesinato ¡NO!
ojalas ke algun dia se respeten los derexos de los animaleS!!!!!!
no xke no sean cmo nosotros los vamos a hacer sufrir
no por eso vamos a experimentar cn eios!!!!!
bueno un saludo para todos
ke viva Ska-P!




[Animales De Laboratorio chords][Animales De Laboratorio cifra]
© LaCuerda.net · aviso legal · privacidad · es · en · pt · contacto