Acordes de Guitarra » S »Sin Bandera » La razón eres tu (Tab)

La razón eres tu
Sin Bandera

  • Letra y Acordes
    Ddee4----------------077700-------------
    G/F#-----------------300022-------------
    C/F------------------010231-------------
    
    LAS DEMAS NOTAS AQUI BUSQUENLA.
    
    http://bis.lacuerda.net/Recursos/acordes/
    
    ----------------------------------------------------------
    
    
    Saludos para Lisbeth . desde el Cusco-PERÚ
    pa mis patas Ever Buni y Jose Cristian.,
    A Lisbeth le quiero decir que si estaria siempre
    algún día ami lado yo le dedicaria esta canción
    para que todos lean yo ya sabre la verdad.
    Le quiero mucho a mi amiga Lisbeth.
    ----------------------------------------------------------
    nose olviden clik en calidad.
    
    
  • Tablatura
             F         Em      C         D
    e-10--8--7--8--10-----5/7--------7---------------------------
    B------------------8-------8--10----8/10---------------------
    G------------------------------------------------------------
    D------------------------------------------------------------
    A------------------------------------------------------------
    E------------------------------------------------------------
    
             F         Em    C         D
    e-10--8--7--8--10--8-5/7-------7-----------------------------
    B------------------------8--10---8/10------------------------
    G------------------------------------------------------------
    D------------------------------------------------------------
    A------------------------------------------------------------
    E------------------------------------------------------------
    
    Verso 1
    
    G                             C9           D
    Todo se siente tan diferente cuando estas aquí
    
  • +
    ¡Colabora con nosotros!
    Envíanos tu versión de esta canción

Letra de La razón eres tu
LAS DEMAS NOTAS AQUI BUSQUENLA.
http://bis.lacuerda.net/Recursos/acordes/
Saludos para Lisbeth . desde el Cusco-PERÚ
pa mis patas Ever Buni y Jose Cristian.,
A Lisbeth le quiero decir que si estaria siempre
algún día ami lado yo le dedicaria esta canción
para que todos lean yo ya sabre la verdad.
Le quiero mucho a mi amiga Lisbeth.
nose olviden clik en calidad.
Todo se siente tan diferente cuando estas aquí
Estas en al gente, estas en mi mente que bello es vivir
And now that I found her, I don´t wanna ever be alone
Tú me amas, y este mundo se ve mejor
Amor, la razon eres tu
Puedes llenar todo el lugar de luz
Me haces volar hasta tu cielo azul
Verso 2
Voy despistado, enamorado sin temor
No tengo prisa, no hay otro lugar mejor
Trying to find the words but I don´t no what to say
She loves me wouldn´t have it any other way
del anterior coro.
Ohh, love, look what you make me do
All of the things I swore that I´d never do
I didn´t know where this will lead me too
Look at now…
Me entrego a tu voz, sin miedo en el corazón
Atrapado por la emoción, y la pasión de darte mi de…vo…ción
Abrazándome a tu piel, todo va a estar muy bien
Whit my whole heart, let forever begin and now
CAMBIO DE TONO.........
La ra…zón eres tu, all of the things
I swore that I´d never do
Me haces volar has…ta tu cielo azul
Look at me now, look what you make me dooooo
La razón eres tuuu…uuuu



© LaCuerda.net · aviso legal · privacidad · contacto