Acordes de Guitarra » S »Silvio Rodriguez » Te conozco (Tab)

Te conozco
Silvio Rodriguez

Letras, Acordes y Tabs para Guitarra, Bajo y Ukulele

  • (V-3)      SIm·LA7/LA#·LAm7
    A)De niño te conocí
                 RE7     (V-0·2·2·3)SOL6
    entre mis sueños queridos
             MIm7      LAm7
    por eso cuando te vi
    SI7/FA#      SI7
    reconocí mi destino
    MIm7                DO7     LAm7 SIm7
    cuando pensaba que ya no iba a ser
           DO7              RE(V-0·2·2·3)
    lo que soñaba de pronto vino
    SOL6            SIm4/7·LA7/LA#·LAm7
    Tanto que yo te busque
                   RE9   RE7(V-3·2·2·3)
    y tanto que no te hallaba
    SOL6     MIm7          (V-3·2)LAm7
    que al cabo me acostumbre
                SI7/FA#    SI7
    a andar con tanto de nada
    
  •    D             F#m  Fm  Em
    A. De niño te conocí 
    Em        A7              D+7
    entre mis sueños queridos
            Bm        Em       C#m       F#7  Bm
    Por eso cuando te ví, reconocí mi destino
              G        F#m         Em
    Cuando pensaba que ya no iba a ser
    F#m      G        A7
    Lo que soñara, de pronto vino
    
    
    A. Tanto que yo te busqué, y tanto que no te hallaba
    Que al cabo me acostumbré a andar con tanto de nada
    Cuánto nos puede curar el amor
    Cuánto renace de tu mirada
    
       D
    B. Te conozco, 
                            Em        F#m  G  A7  D
    
  •   Em7           G6             Am7 Bm7  C7     D
    C|-------------|--------------|---------------------
    G|-------------|--------------|-----4-----5---------
    D|---5---------|--------2-----|---------------------
    A|-----7-5-----|----------2---|---2---2-3---3-X-5---
    E|---------7-5-|-3---0------3-|-5-------------------
    B|-------------|--------------|---------------------
    
    
      G6  Em7               G6          Em7     Am7 D  Bb(dis)
    C|--------------------|--------------------|----------
    G|------4-4-----------|--------------------|----------
    D|----------7-5---7-X-|-5-5----------------|-------8--
    A|--------------7-----|-----5---0-2--------|----5-----
    E|-3--0---------------|-------3-----0--0-3-|-5--------
    B|--------------------|--------------------|----------
    
    
      Bm7       Em7        Am7  Bm7 C7          D
    C|--------------------|----------------------------
    
  • +
    ¡Colabora con nosotros!
    Envíanos tu versión de esta canción

Letra de Te conozco
A. De niño te conocí
entre mis sueños queridos
Por eso cuando te ví, reconocí mi destino
Cuando pensaba que ya no iba a ser
Lo que soñara, de pronto vino
A. Tanto que yo te busqué, y tanto que no te hallaba
Que al cabo me acostumbré a andar con tanto de nada
Cuánto nos puede curar el amor
Cuánto renace de tu mirada
B. Te conozco,
te conozco desde siempre, desde lejos
Te conozco,
te conozco como a un sueño bueno y viejo
Y es por eso que te toco y te conozco
Te conozco
22-23-32(D)
22-23-30(Em)
22-23-20(G)-22-23-25(A7)-44(D)
(2 veces, terminar en 23-D)
A. El lago parece mar, el viento sirve de abrigo
Todo se vuelve a inventar si lo comparto contigo
La única prisa es la del corazón
La única ofensa es tener testigos
B. Te conozco ... ... ... te toco y te conozco,
Te conozco




[Te conozco chords][Te conozco cifra]
© LaCuerda.net · aviso legal · privacidad · es · en · pt · contacto