Acordes de Guitarra » S »Silvio Rodriguez » Mujeres (Tab)

Mujeres
Silvio Rodriguez

Letras, Acordes y Tabs para Guitarra, Bajo y Ukulele

  •   E  D  A  E
    
    
      E7/D         C#m*
    A)Me estremecio la mujer
       C*           E       E7/D  C#m*  C*  E
      que empinaba sus hijos
      hacia la estrella de aquella
      otra madre mayor
      y como los recogia
      del polvo teñidos
      para enterrarlos debajo
      de su corazon.
    
      E7/D            C*
      Me estremecio la mujer
      Bsus             E      E7/D  C*  Bsus  E
      del poeta, el caudillo
      siempre a la sombra y llenando
      un espacio vital
    
  • E---------------------------------------------------------------
    B---------------------------------------------------------------
    G---1-----------1-----1--4-----4--------1-----1--4-----4--4-----
    D------2-----------2--------6--------------2--------6--------4--
    A---------------------------------------------------------------
    E---------------------------------------------------------------
                                                                            
    
    2 veces                                                                        
    E------------------------------------------0--------------------
    B------------------------------------------0--------------------
    G---1-----1--4-----4--2-----2--1-----------1--------------------
    D------2--------6--------4--------2--------2--------------------
    A------------------------------------2-----2--------------------
    E---------------------------------------0--0--------------------
                                               E  D/F# A E
    
    E---------------------------------------------------------------
    B---------------------------------------------------------------
    G---1-----1--4-----4--2-----2--6-----6--4-----4--7-----7--6-----
    
  • Intro                                             E  D/F#  A  E
    e|------------------------------------------------0---2----x--0-----
    b|1-----1-1-4-4----1-1-4-4-2-----1-1-4-4-2-2-1-1--2---0----0--2-----
    g|-2-----2---6------2---6---4-----2---6---4---2---2---0----2--2-----
    D|------------------------------------------------3---3----2--3-----
    A|------------------------------------------------0---2----2--0-----
    E|------------------------------------------------0---3----0--0-----
                       E  D/F#  A  E
    e|-----------------0---2----x--0------------------------------------
    b|1-1-4-4-2-2-1-1--2---0----0--2----1-1-4-4-2-2-6-6-4-4-7-7-6-6-4-4-
    g|-2---6---4---2---2---0----2--2-----2---6---4---7---6---9---7---6--
    D|-----------------3---3----2--3------------------------------------
    A|-----------------0---2----2--0------------------------------------
    E|-----------------0---3----0--0------------------------------------
                        E  D/F#  A  E    E  D/F#  A  E
    e|------------------0---2----x--0----0---2----x--0-----------------|
    b|6-6-4-4-2-2-1-1---2---0----0--2----2---0----0--2-----------------|
    g|-7---6---4---2----2---0----2--2----2---0----2--2-----------------|
    D|------------------3---3----2--3----3---3----2--3-----------------|
    A|------------------0---2----2--0----0---2----2--0-----------------|
    
  • ---------------------------------------------------------------------------
    
    INTRODUCCIÓN:
    -------------
    
           E*     G#m*  F#m*   E              D/F# A     E
           |   |     |   |   |   |     |   |   |   |   |   |
    E|| |----------------------------|---/-----/-/---/---/-----|
    B||6|----------------------------|---/-----/-/---/---/-----|
    G||_|--1---1-1s4---4-2---2-1-----|---/-/-/-/-/-/-/---/-----|
    D|| |----2-------6-----4-----2---|-2-/-/-/-/-/-/-/---/-----| x2
    A||8|----------------------------|---/-/-/-/-/-/-/---/-----|
    E|| |--------------------------0-|---/-/-/-/-/-------/-----|
                                         ^ v ^ ^ v ^ ^   ^
    
       E*     G#m*  F#m*     A*      G#m*     Bm*   A*   G#m*
       |   |     |   |   |     |      |   |     |   |   |   |
    |------------------------------|----------------------------|
    |------------------------------|----------------------------|
    |--1---1-1s4---4-2---2-2s6---6-|--4---4-4s7---7-6---6-4---4-|
    
  • +
    ¡Colabora con nosotros!
    Envíanos tu versión de esta canción

Letra de Mujeres
A)Me estremecio la mujer
que empinaba sus hijos
hacia la estrella de aquella
otra madre mayor
y como los recogia
del polvo teñidos
para enterrarlos debajo
de su corazon.
Me estremecio la mujer
del poeta, el caudillo
siempre a la sombra y llenando
un espacio vital
me estremecio la mujer
que incendiaba los trillos
de la melena invencible
de aquel aleman.
B)Me estremecio la muchacha
hija de aquel feroz continente
que se marcho de su casa
para otra, de toda la gente.
C)Me han estremecido
un monton de mujeres
mujeres de fuego
mujeres de nieve
Me han estremecido
un monton de mujeres
mujeres de fuego
mujeres de nieve
L1 L3 L2 E D A E
Pero lo que me ha estremecido
L1 L3 L2 E D A E
hasta perder casi el sentido
L1 L3 L2 L4
lo que a mi mas me ha estremecido
L3 L5 L4 L3
son tus ojitos, mi hija
L4 L3 L2 E D A E
son tus ojitos divinos.
L1 L3 L2 E D A E
Pero lo que me ha estremecido
L1 L3 L2 E D A E
hasta perder casi el sentido
L1 L3 L2 L4
lo que a mi mas me ha estremecido
L3 L5 L4 L3
son tus ojitos, mi hija
L4 L3 L2 E D A E D A E
son tus ojitos divinos.
A)Me estremecio la mujer
que pario once hijos
en el tiempo de la harina
y un kilo de pan
y los miro encurecerse
mascando carijos
me estremecio porque era
B)Me estremecieron mujeres
que la historia anoto entre laureles
y otras desconocidas gigantes
que no hay libro que las aguante.
C)Me han estremecido
un monton de mujeres
mujeres de fuego
mujeres de nieve
Me han estremecido
un monton de mujeres
mujeres de fuego
mujeres de nieve
Pero lo que me ha estremecido
hasta perder casi el sentido
lo que a mi mas me ha estremecido
son tus ojitos, mi hija
son tus ojitos divinos
Pero lo que me ha estremecido
hasta perder casi el sentido
lo que a mi mas me ha estremecido
son tus ojitos, mi hija
son tus ojitos divinos.
L1 L3 L2 L4 L3 L5 L4 L3 L4 L3 L2 E D A E
ACORDES:
L1 XX21XX
L2 XX42XX
L3 XX64XX
L4 XX76XX
L5 XX97XX
transcripcion del trabajo realizado por
usuario "ququfato" en youtube,,,,saludos TEMUCO, CHILE




[Mujeres chords][Mujeres cifra]
© LaCuerda.net · aviso legal · privacidad · es · en · pt · contacto