Acordes de Guitarra » S »Silvio Rodriguez » La gota de rocío (Tab)

La gota de rocío
Silvio Rodriguez

Letras, Acordes y Tabs para Guitarra, Bajo y Ukulele

  • DO RE/FA# SOL·SOL·RE/FA#·DO 
    La gota de rocío
    
    DO RE/FA# SOL·SOL·RE/FA#·DO 
    del cielo se cayo
    
    DO RE/FA# SOL 
    y en ella el amor mío
    
    SOL RE/FA# DO·DO·RE/FA#·SOL 
    la carita se lavo
    
    Pero era tan temprano
    que no salía el sol
    y se helaron las manos
    y mejillas de mi amor
    
    Creí que las estrellas
    LA iban A buscar
    y que en su cara bella
    
  •                        C
    ---3---3---3---2----------------2------------
    -------------------3---3----3----------------
    ----5---5---------------2-------2------------  PRIMERA
    -----------4---2---0-----0--0----------------   PARTE
    ---------------------------------------------
    ---------------------------------------------
    
                           C
    ---3---3---3---2----------------2------------
    -------------------3---3----3----------------
    ----5---5---------------2-------2------------  SEGUNDA
    -----------4---2---0-----0-------------------   PARTE
    -------------------1--------1----------------
    ---------------------------------------------
    
                              C       D
    ---3---3---3---2------------------------------
    -------------------0---3--3----3--------------
    ----5---5------------------2- ----0--0--------  TERCERA
    
  • Bueno esta es una de las mejores canciones de Silvio y
    la verdad es q es bastante simple los acordes base son G D C
    Las equis marcadas son notas mudas, se toca suave las tres notas
    semi-muteadas, si oyen la canción se van a dar cuenta.
    Intro:
    e----------------------------------
    B-----------3-3-x-1------1-3-x-3---
    G---0-----0---2-x-0-----0--2-x-0---
    D-----0-------0-x-2-0--2---0-x-0-0-
    A---------------------3------------
    E-3-----3----------------------3---
    
    e--------------------------------
    B---------3-3-x-1------1-3-x-3---
    G-------0---2-x-0-----0--2-x-0---
    D-----------0-x-2-0--2---0-x-0-0-
    A-------------------3------------
    E-----3----------------------3---
    
    e---------------------------------------------
    B--------3-3-x-1------1-3-x-3-------3-3-x-1---
    G------0---2-x-0-----0--2-x-0-----0---2-x-0---
    D------------x-2-0--2-----x---0---------x-2-0-
    A------------------3--------------------------
    E----3----------------------3---3-------------
    
    Versos:
    e---------------
  • +
    ¡Colabora con nosotros!
    Envíanos tu versión de esta canción
  • Tutorial
    HD
    Como tocar - La gota de rocío - Silvio Rodríguez
    15:40

Letra de La gota de rocío
La gota de rocío
del cielo se cayo
y en ella el amor mío
la carita se lavo
Pero era tan temprano
que no salía el sol
y se helaron las manos
y mejillas de mi amor
Creí que las estrellas
y que en su cara bella
se ponían a jugar
Me dijo: tengo frío
acércame calor
y fui con tanto brío
que encendí su corazón
Y mientras la besaba
me dijo en un temblor
esto es lo que faltaba
para que saliera el sol
Oh! gota de rocío
no dejes de caer
para que el amor mío
siempre me quiera tener




[La gota de rocío chords][La gota de rocío cifra]
© LaCuerda.net · aviso legal · privacidad · es · en · pt · contacto