Tablatura para Guitarra de Silvio Rodriguez: El Dulce Abismo
Conexión · Inscripción
Letras y Acordes
Pantalla Completa
Imprimir
Versión Texto
Añadir Favorito
Otras Versiones

Mostrar Diagramas
Desfile Automático
Manipular Acordes
Formato del Texto


El Dulce Abismo(TAB)

Silvio Rodriguez

calidad:
srod0503
AUTOR: Silvio Rodríguez
ALBUM: Triptico, Vol. 2
Enviado por andres
la siguiente es netamente una tablatura
los acordes de los otros aportes estan bien
pero esto es para pulir un poco mas el sonido
la letra aparece encima de la tablatura y las |
indican mas o menos donde se da cada enfasis es decir
aproximadamente cada silaba espero que la disfruten
y por ultimo la dedicacion para yohana pues
regresare del sol que alumbra, sabiendo que no
hay ausencia para el dulce abismo
NOTA: solo aparecen las primeras dos estrofas despues se repite
solo cambia la cuarta la ultima parte donde aparece *4/

E|-----------------|-----------------|
B|-------1-------1-|-1-0-----------0-|
G|-----0-------2---|-----2-0---0-2---|
D|---2-------0-----|---------3-------|
A|-3---------------|-----------------|
E|---------2-------|-----------------|

E|----------------|---------------|---0-|
B|-1-----1----1-0-|---1-------1---|-1-1-|
G|-----0-----0----|-----0---0---0-|---0-|
D|---2------------|-------2-------|-----|
A|----------------|-3-------------|-----|
E|---------3------|---------------|-----|

      AMADA       SUPON QUE   ME VOY LEJOS
      |||            | | |    |||   |
E|-----------|-------------|---------------|
B|-----------|-------------|----3---0---0--|
G|---0-------|-------------|-0----0---2-0--|
D|-----2---2-|---2-0-4-0---|---------------|
A|-3-----3---|-3-------0-3-|---------------|
E|-----------|-3-----------|---------------|
                        TAN LEJOS
                           |||
E|-----0-1-3-1---0-|-1-----1-------|
B|-1-3-----3-------|-----1---1-3-1-|
G|-----0-------0---|---2-----------|
D|-0---------------|---------------|
A|-----------------|---------------|
E|-----------------|---------------|

           QUE OLVIDARE MI NOMBRE
             | |   | | | |    |
E|---------------|---------------------|
B|-0---0---------|-1-1---------0-1-3-4-|
G|-0-0---0-2-0-0-|-----0---0-2---0-----|
D|-------0-3-----|-------2-------------|
A|---------------|---------------------|
E|---------------|---------------------|
                         AMADA
                         | | |
E|-0-----0---2-----|---------------|
B|---1-----3---3-1-|-0-------0-----|
G|-----0-----------|-0-0---0-----0-|
D|-----------------|-----0-----0---|
A|-----------------|---------------|
E|-----------------|---------------|
      QUIZAS SOY OTRO HOMBRE             MAS ALTO
         | | |   | | | |                     | ||
E|---------1---|-0-----------0---|-----5---3-----|
B|-------1---1-|-----0-----0---3-|-3-----3-5---3-|
G|-----2-------|---1-----1-------|-----2-----2---|
D|-3-----------|-2-----2---------|---2-----------|
A|---3---------|-----------------|---------------|
E|-------------|-----------------|---------------|
  Y MENOS VIEJO QUE ES PE
     |||  |         ||
E|----------|---------|
B|------0---|---------|
G|-2--------|-----0---|
D|-0--------|-------3-|
A|---0----0-|-----2---|
E|----------|-3-3-----|
   RA POR SI MIISMO               ALLA LEJOS
   | | ||  | |                    | | |   |
E|-------------|---------------|----------------|
B|-1-----------|---------------|----------------|
G|---0---2-----|-2-----2-0-----|----------------|
D|---------3---|---2-2-----0-2-|--3-----------2-|
A|-----3-----1-|-----0-2-4-----|----3-0-----3---|
E|-------------|---------------|-3------2-3-----|
    ALLA TREPANDO EL DULCE ABISMO
         || | |||   | | |     |
E|----------------|-------------|
B|----------------|-------------|
G|----------------|---0---------|
D|-3------------0-|-2---2-0-2-0-|
A|-5-0-3-0-----3--|-3-----------|
E|---------3-3----|-------3-----|
                     ALLA LEJOS
                       | |  | |
E|-----------------|----------------|
B|-----------------|----------------|
G|---------3---0-1-|-2--------------|
D|-2-2-0-----2-----|------3-2-----2-|
A|-3---1-3---------|--0-3-------3---|
E|-----------------|----------3-----|
    ALLA TREPANDO   EL DULCE ABISMO
       | | | |      | | | | |
E|----------------|-----------------|
B|----------------|---------------1-|
G|-------0--------|-------------2---|
D|-0---0--------0-|---2-----0-4-----|
A|---0------------|-3-----3---------|
E|---------3-3----|-----3-----------|


E|---------0-3-1-0-1-0---|0-------------------------|
B|1---0-1-3-------3---3-1|-3-1-0-3-1-0-1-0-----0-1-3|
G|-0-2-------------------|------------2---2-0-2-----|
D|-----------------------|--------------------------|
A|-----------------------|--------------------------|
E|-----------------------|--------------------------|

E|---------------|---0-3-5-|
B|---1-------1---|-1-----5-|
G|-----0---0---0-|-------5-|
D|-------2-------|---------|
A|-3-------------|---------|
E|---------------|---------|


     AMADA           SUPON QUE  NO HAY REMEDIO
      |||               | | |   |  | | |
E|---------3-|-0---0-2-0-----|---------------|----------------|
B|-1---------|-1-1-------3-1-|-0-------0-----|----0-----------|
G|---0---0-0-|---0-----2-----|---0---0---2-0-|--0---0---0-----|
D|-2---2-----|---------------|-----0---------|4-------0---3-2-|
A|-3---------|---------------|---------------|------------2---|
E|-----------|---------------|---------------|----------------|
     REMEDIO
       | | |
E|---------------|
B|---------------|
G|-0-------------|
D|-3-3-2-3---0---|
A|---0---3-3---3-|
E|---------------|
           ES TO   DO LO QUE INTENTO
           |   |   | |   | |   |
E|---------------|-------------------|-----------------|
B|---0-----------|-------------------|-----------------|
G|-----0---0-----|-------------------|-----------------|
D|-----0-3---0-3-|-3-2-0-2-----------|---2---2-0-4-0-0-|
A|-2-------------|-3-3-----------0-2-|-3-3-3-----5---3-|
E|---------------|-------3-0-3-3-3---|-----3-0---------|
           AMADA
           | | |
E|-----------------|
B|-1-0---0---------|
G|-0---2-----0-0-0-|
D|---------0-------|
A|-------------2---|
E|-----------------|

         TOMA ESTE PENSAMIENTO                    COLOCA
           | | |   | |   | |                       | ||
E|---------------|-------------------|-----------------|
B|---------------|-------------------|-----------------|
G|---2-------2---|-------------------|---------2-0-----|
D|-3---3-3---3---|-3-2-1-2-------2-0-|-0---------2---2-|
A|---0---0-3---3-|-------2-----2-----|---4-2-4-4---4-4-|
E|-----1---------|-0-4-----0-4-------|---0---5-----5---|
   LO EN EL CENTRO
     | | |  |
E|---------------|
B|---------------|
G|---------------|
D|-0---0-3---0---|
A|---0-----0---3-|
E|-------------5-|
           DE TO DO EL EGOIISMO
            | | | | | |  |  |
E|------------|-----------------|-------------0-|
B|-----0------|-----------------|-------0-2-3---|
G|---0---0----|-----------0-3---|-----2---------|
D|---------3--|-2-----2-0-3---0-|---2-----------|
A|-2---2------|-3---3---1---1---|-4-------------|
E|-3-3--------|---3-------------|---------------|
    Y VE QUE NO HAY  AUSENCIA PARA EL
     | |  | |            ||| | |
E|-1-------0-----|-----5---3-----|
B|---1---1---1---|-3---------1-3-|
G|-----2-------0-|---2-5-2-0-----|
D|---------------|---------------|
A|---------------|---------------|
E|---------------|---------------|

    DULCE ABISMO                  Y VE QUE NO HAY
   | | |       |                    ||  |  |
E|---5-2-----5-2-|-0-0-----3-4-|-5-1---5-3-0-----|
B|-1---1---1-----|-1---1-------|-6---1---5-------|
G|---2-----------|-------3-----|---2-------0-0-1-|
D|-------4-------|-------------|-----------------|
A|---------------|-------------|-----------------|
E|---------------|-------------|-----------------|
  AUSENCIA PA
       | | | |
E|-----1-------|
B|-3-----1-0-0-|
G|---2-2---0---|
D|-3-----------|
A|-------------|
E|-------------|

  RA EL DULCE ABISMO
*2/| | | |   |
E|-----------------|-----------------|
B|---------------1-|-1-0-----------0-|
G|-----0-----0-2-0-|-0---2-0---0-2---|
D|---2---2-0---0---|---------3---3---|
A|-3---3-4---------|-----------------|
E|-----------------|-----------------|

                                            *
E|-------------------|----3-0-3-3|--3-2-1-0-|
B|-1-------------1-0-|1-1-5------|1---1---1-|
G|---0---0---0-------|------0-2-0|--------0-|
D|-2---2---0---0-----|-----------|----------|
A|-------------------|-----------|----------|
E|-------------------|-----------|----------|


*4/
E|-----1-------|----0---2-----2|3-------------1|
B|-3-----1-0-0-|--1---1-3---3-1|1-0-3-------1-0|
G|---2-2---0---|0---0-------2--|----2-0---2-2--|
D|-3-----------|--2-------4----|--------3-5----|
A|-------------|3--------------|---------------|
E|-------------|---------------|---------------|

                                  *
E|0-----0-3-----|0---------0--|---|
B|1---1------1-0|1---1-------1|---|
G|--0---0---0---|--0-----0---0|0--|
D|----2---------|------2------|--2|
A|--------------|-------------|3-3|
E|--------------|-------------|--3|
Este fichero es trabajo propio de su transcriptor y representa su interpretación personal de la canción. El material contenido en esta página es
para exclusivo uso privado, por lo que se prohibe su reproducción o retransmisión, así como su uso para fines comerciales.

© LaCuerda.net · Aviso Legal · Privacidad