Acordes de Guitarra » S »Silvio Rodriguez » Al final de este viaje (Tab)

Al final de este viaje
Silvio Rodriguez

Letras, Acordes y Tabs para Guitarra, Bajo y Ukulele

  • LA        RE       MI
    A)Al final de este viaje
      LA
    en la vida quedaran
    RE            MI  LA          RE
    nuestros cuerpos hinchados de ir
          MI     RE            DO#m    MI
    a la muerte, el odio, al borde del mar
    
    (se repite en todo A los mismos acordes)
    
    A)al final de este viaje
     en la vida quedara
     nuestro rastro invitando a vivir
     por lo menos por eso es que estoy aquí.
    
    LA          RE          MI        LA
    B)Somos prehistoria que tendrá el futuro
               RE           MI      LA
    somos los anales remotos del hombre
    
  • Intro   Riff  1   (3)    G  G(3)  G(7)    C(7)  F  G   Riff  2
    
    Riff 1                         Riff 1
    Al final, de este viaje en la vida quedarán,
                         Riff 1
    nuestros cuerpos hinchados de ir,
                      F       C/E       G   G4  G
    a la muerte, el odio, al borde del mar.
    
    Al final, de este viaje en la vida quedará,
    nuestro rastro invitando a vivir
    por lo menos por eso es que estoy aquí.
    
    PRE 1
    C            F         G           C
    Somos prehistoria que tendrá el futuro,
                F       G          C
    somos los anales remotos del hombre,
                F        G        Em
    estos años son el pasado del cielo,
    
  • C  Fmaj  C   Fmaj7   C  Fmaj7 Gsus   Dm11   C  F G
    
    
       C     Fmaj7
    A)Al final de este viaje
            C             Fmaj
    en la vida quedaran
                         C          Fmaj7
    nuestros cuerpos hinchados de ir
    Fmaj7             F    Em            G
    a la muerte, el odio, al borde del mar
    
    
    A)al final de este viaje
    en la vida quedara
    nuestro rastro invitando a vivir
    por lo menos por eso es que estoy aquí.
    
    C          Fmaj7            G         C
    B)Somos prehistoria que tendrá el futuro
    
  • |--0-0-------------------0-h3-p0----------|      E  A  G  D B e
    |--1-1--------------1-h3---------1--------|  G7  3  2  0  0 0 1
    |--0-0------------2----------------2--0---|  D*  8  7  0  0 6 8
    |--2-2-------0-h3-------------------------|
    |--3-3----------------------------------3-I C*   8  10 10 9 8 8
    |----0-------------------------------3----| Cd   0  0  1  2 1 2
    Fig 2                                       Dd   0  0  3  4 3 4
    |-------------------------||                G/4  3  2  0  0 1 3
    |-------------------------||                Fmaj 0  0  3  2 1 0
    |-------------------------||                Em   0  2  2  0 0 0
    |-------------------------||                Gmaj73  2  0  0 3 1
    |-----0-2-5-2-0-h2-p0-----||                Ebd  0  6  7  5 7 0
    |-0-3-----------------3---||
    
    
    Intro:  fig 1 (3 veces) G7, Gmaj7, D*, C*, F, Em
    
    Fig 1
             Al final de este viaje
                    Fig 1
    
  • |----0-0-0-0-------------0-h3-p0----------||-----0-0-0-0-------------0-h3-p0----------||
    |--1-1-1-1-1--------1-h3---------1--------||---1-1-1-1-1--------1-h3---------1--------||
    |--0-0-0-0-0------2----------------2--0---||---0-0-0-0-0------2----------------2--0---||
    |--2-2-2-2-2-0-h3-------------------------||---2-2-2-2-2-0-h3-------------------------||
    |----3-3-3-3----------------------------3-||-----3-3-3-3----------------------------3-||
    |----0-0-0-0-------------------------3----||-----0-0-0-0-------------------------3----||
    
    
    
    |----0-0-0-0-------------0-h3-p0---------1-1-1-0-0-0---3-3-3---8--8--8----||
    |--1-1-1-1-1--------1-h3---------1-------3-3-3-1-1-1---3-3-3---8--8--8----||
    |--0-0-0-0-0------2----------------2-----0-0-0-0-0-0---0-0-0---9--9--9----||
    |--2-2-2-2-2-0-h3--------------------0---0-0-0-0-0-0---0-0-0---10-10-10---||
    |----3-3-3-3-------------------------------------------2-2-2---10-10-10---||
    |----0-0-0-0---------------------------3-------------3-------8------------||
    
    
    
    |-8--8--8--8--8--8--8--8----1-1-1-----------------||
    |-8--8--8--8--8--8--8--8----1-1-1-----------------||
    
  • +
    ¡Colabora con nosotros!
    Envíanos tu versión de esta canción

Letra de Al final de este viaje
A)Al final de este viaje
en la vida quedaran
nuestros cuerpos hinchados de ir
a la muerte, el odio, al borde del mar
(se repite en todo A los mismos acordes)
A)al final de este viaje
en la vida quedara
nuestro rastro invitando a vivir
por lo menos por eso es que estoy aquí.
B)Somos prehistoria que tendrá el futuro
somos los anales remotos del hombre
estos años son el pasado del cielo
estos años son cierta agilidad
con que el sol te dibuja en el porvenir
son la verdad o el fin
son Dios.
C)Quedamos los que puedan sonreír
en medio de la muerte, en plena luz
en plena luz, en plena luz...
A)Al final de este viaje
en la vida quedara
una cura de tiempo y de amor
una gasa que envuelva un viejo dolor
al final de este viaje
en la vida quedaran
nuestros cuerpos tendidos al sol
como sabanas blancas después del amor.
B)Al final del viaje esta el horizonte
al final de este viaje partiremos de nuevo
al final de este viaje comienza un camino
otro buen camino que seguir descalzos
contando la arena, al final del viaje
estamos tu y yo, intactos...
C)Quedamos los que puedan sonreír...
6ª 5ª 4ª 3ª 2ª 1ª
AMOY:TODO LISTO CON la Ruta SAntiago - Machu Pichu!!!
teh!!! et oma eivimeda!!!! eres lo mejor amoy!!!!




[Al final de este viaje chords][Al final de este viaje cifra]
© LaCuerda.net · aviso legal · privacidad · es · en · pt · contacto