Acordes de Guitarra » S »Shakira » Te espero sentada (Tab)

Te espero sentada
Shakira

Letras, Acordes y Tabs para Guitarra, Bajo y Ukulele

  •             E9                   A
           7   6    5   4              7   6   5   4
          |---|---|---|---|X         |---|---|---|---|X
          |-2-|---|---|---|S         |-3-|---|---|---|S
          |---|-1-|---|---|S         |-4-|---|---|---|S
          |-3-|---|---|---|S         |---|-2-|---|---|S
          |-4-|---|---|---|S         |---|---|-1-|---|S
          |---|---|---|---|X         |---|---|---|---|X
    
                Em9                F#7
            7   6   5   4              4   3   2   1
          |---|---|---|---|X         |---|---|-1-|---|X
          |-2-|---|---|---|S         |-3-|---|-1-|---|S
          |---|---|-1-|---|S         |---|---|-1-|---|S
          |-3-|---|---|---|S         |---|-2-|-1-|---|S
          |-4-|---|---|---|S         |---|---|-1-|---|S
          |---|---|---|---|X         |---|---|-1-|---|X
    
    
    
    
  •         7     6              Edimm
        x|-----|-----|-----|-----|-----|-----|-----| E
         |--0--|-----|-----|-----|-----|-----|-----| A
         |-----|--0--|-----|-----|-----|-----|-----| D
         |--0--|-----|-----|-----|-----|-----|-----| G
         |--0--|-----|-----|-----|-----|-----|-----| B
        x|-----|-----|-----|-----|-----|-----|-----| e
    
            7     6     5        Adimm
        x|-----|-----|-----|-----|-----|-----|-----| E
         |--0--|-----|-----|-----|-----|-----|-----| A
         |--0--|-----|-----|-----|-----|-----|-----| D
         |-----|--0--|-----|-----|-----|-----|-----| G
         |-----|-----|--0--|-----|-----|-----|-----| B
        x|-----|-----|-----|-----|-----|-----|-----| e
    
    Edimm Adimm (x2)
    
         Edimm
    Te espero sentada en la esquina de siempre
    
  • +
    ¡Colabora con nosotros!
    Envíanos tu versión de esta canción

Letra de Te espero sentada
7 6 5 4 7 6 5 4
7 6 5 4 4 3 2 1
Te espero sentada en la esquina de siempre
Y más arreglada que si fuera un viernes
Sin ninguna cita hecha previamente
Pero con la plena intuición de verte
Mis ojos no paran de mirar y mirar
El oscuro pedernal de las ideas
Buscando más huecos dentro de este hueco
Buscando una luz en medio de este cielo
Mi cielo, mi cielo, pobre de mi cielo
Mis manos las guardo porque tengo frio
Y se sienten raras dentro del bolsillo
Ha pasado ya más de una hora y media
No has aparecido me falló mi instinto
Pero es que mi instinto no sabe de amores
Pero es que mi instinto no sabe qué:
(CAMBIA A RITMO BLUES:)
Vivir la vida sin ti, es algo como morir
Es caminar sin mirar, como cantar sin oír
Es hablar sin respirar, es comer sin digerir
Porque yo descubrí que eres la forma perfecta
La medida exacta justa para mí, es así.
Mi cielo, mi cielo no sabes que:
(CAMBIA A RITMO BLUES:)
Vivir la vida sin ti, es algo como morir
Es caminar sin mirar, como cantar sin oír
Es hablar sin respirar, es comer sin digerir
Porque yo descubrí que eres la forma perfecta
La medida exacta justa para mí
(Vivir la vida así) y es algo como morir
Es caminar sin mirar, como cantar sin sentir
Es hablar sin respirar, es comer sin digerir
Porque yo descubrí que eres la forma perfecta
La medida exacta justa para mí…
(voces, risas y sonidos)
FIN




[Te espero sentada chords][Te espero sentada cifra]
© LaCuerda.net · aviso legal · privacidad · es · en · pt · contacto