Acordes de Guitarra » S »Shakira » Te aviso te anuncio (Tab)

Te aviso te anuncio
Shakira

  • Letra y Acordes
    F# - Bm    F# - Bm
          E 
          B
          G
          D 4-4-2-2-0-0
          A          4-4-2    
          E
    
          
          Bm              A            Bm
           Nunca pense que doliera el amor asi
            
          Bm                  A               Bm
          cuando se entierra en el medio de un no y un si
    
          A                     G      Bm 
            es un dia ella y otro dia yo
    
                        A    G     F#
           me estas dejando sin corazon y cero de razon
    
  • Tablatura
    0:18
    e---2---7---2---|----------------|----------------|------------------------|
    B---4---7---4---|----------------|----------------|------------------------|
    G---4---4---4---|----------------|-----------4--2-|-------------------4--2-|
    D---4---4---4---|--4--2--0-------|-----------4--2-|-------------------4--2-|
    A---------------|-----------4--2-|-0-2-0-2-0-2--0-|-2-0-2-2-0-0-0-5-4-2--0-|
    E---------------|----------------|----------------|------------------------|                           
                                 
    e-------------------|-5-3-7----5-3-2-|-7-5-3--2-------|-7-5-3--2-----|
    B-------------------|-5-3-7----5-3-2-|-7-5-3--2-7---5-|-7-5-3--2-5-7-|
    G-------------------|-6-4-8----6-4-3-|-8-6-4--3-------|-8-6-4--3-----|
    D-------------------|----------------|----------------|--------------|
    A-2-0-2-2-0-0-0-5-4-|----------------|----------------|--------------|
    E-------------------|----------------|----------------|--------------|
    							1:10 
    e-7-5-3--2-------|-7-5
  • Tablatura
    F# - Bm    F# 
          e|---------------------------------|
          B|---------------------------------|
          G|---------------------------------|
          D|4-4-2-2-0-0----------------------|
          A|-------------4-4-2---------------| 
          E|---------------------------------|
    
    Bm                         ( Rift 1)                    
    Nunca pense que doliera el amor asi
    Bm                                        (Rift 1)
    cuando se entierra en el medio de un no y un si
    A                 G       Bm
    es un dia ella y otro dia yo
    A                 G        F#
    me estas dejando sin corazon y cero de razon
    CORO:
                 Bm         A          G               F#
           Ay te aviso, te anuncio que hoy renuncio a tus negocios sucios
                Bm         A          G         F#
    
  • +
    ¡Colabora con nosotros!
    Envíanos tu versión de esta canción

Letra de Te aviso te anuncio
D 4-4-2-2-0-0

Nunca pense que doliera el amor asi

cuando se entierra en el medio de un no y un si
es un dia ella y otro dia yo
me estas dejando sin corazon y cero de razon
Ay te aviso, te anuncio que hoy renuncio / a tus negocios sucios

ya sabes que estoy de ti vacunada / a prueba de patadas

por ti me quede como Monalisa / sin llanto y sin sonrisa
que el cielo y tu madre cuiden de ti...
me voy / sera mejor asi
BREAK
D 4-4-2-2-0-0

Se que olvidarte no es asunto sencillo

te me clavaste en el cuerpo como un cuchillo

pero todo lo que entra ha de salir

y los que están tendrán que partir
empezando por mi

Ay te aviso, te anuncio que hoy renuncio / a tus negocios sucios

ya sabes que estoy de ti vacunada / a prueba de patadas

por ti me quede como Monalisa / sin llanto y sin sonrisa
que el cielo y tu madre cuiden de ti...
me voy oh no no no.........
Tal vez tu no eres ese para mi

No se como se puede engañar asi
Pero era asi
SIN ACORDES
ACOMPAÑA EL SIGUIENTE PUNTEO. HAZLO 2 VECES


Es tan patetico
neurotico
satirico
psicotico
que no lo ves / el tango no es de tres
llevo engañando a este par y me sale al reves
pero voy a intentarlo una y
otra vez
LOS ACORDES PARA ACOMPAÑAR SON Bm-A-G-F#

Ay te aviso, te anuncio que hoy renuncio / a tus negocios sucios
por ti me quede como Monalisa / sin llanto y sin sonrisa
te aviso que estoy de ti vacunada / y no me importa nada
que el cielo y tu madre cuiden de ti / me voy sera mejor asi
ya me voy... ya me fui
es mejor asi
Ay que el cielo y tu madre cuiden de ti... me voy
hay que el cielo y tu madre cuiden de ti... me voy sera mejor asi
Esta es mi segunda transcripcion, espero que este correcta. Cualquier duda
o comentario manda un mail a javierfernando17@hotmail.com
OSO



© LaCuerda.net · aviso legal · privacidad · contacto