Acordes de Guitarra » S »Shakira » Que me quedes tu (Tab)

Que me quedes tu
Shakira

Letras, Acordes y Tabs para Guitarra, Bajo y Ukulele

  • F                      Cm
    Que se arruinen los canales de noticias
    Gm                    Bb
    con lo mucho que odio la televisión.
    F                      Cm
    Que se vuelvan anticuadas las sonrisas
    Gm                         Bb
    y que se extingan todas las puestas de sol.
    Cm          Gm           Bb        F
    que se supriman las doctrinas y deberes,
    Cm          Gm           Bb        F
    que se terminen las películas de acción,
    Cm          Gm           Bb         F
    que se destruyan en el mundo los placeres,
    Cm                         Gm
    y que se escriba hoy una ultima canción.
    
    CORO
                       Bb
    Pero que me quedes tú
    
  • F                      Cm
    Que se arruinen los canales de noticias
    
    Gm                    A#
    Con lo mucho que odio la television
    
    F                     Cm
    Que se vuelvan anticuadas las sonrisas
    
    Gm                        A#
    Y que se extingan todas las puestas de sol
    
    Cm         Gm          A#         F
    Que se supriman las doctrinas y deberes
    
    Cm         Gm          A#         F
    Que se terminen las películas de accion
    
    Cm         Gm          A#         F
    Que se destruyan en el mundo los placeres
    
  • e---7----------------------------------
    B--9--9--7--9--7--7----------------7---
    G----------------8---8--6--4--6--8---8-
    
      C#m        G#m            B            F#m              (2)
    D-----2-------------------------------------------
    A-4-4---4-4------2-------1-2--2--2-2-1-------1-----
    E------------4-4---4---4---------------4-2-2---2-2-
    
    F#                      C#m
    Que se arruinen los canales de noticias,
    G#m                    B
    con lo mucho que odio la televisión.
    
    Que se vuelvan anticuadas las sonrisas
    y que se extingan todas las puestas de sol.
    
    PUENTE 1
    C#m         G#m          B         F#
    Que se supriman las doctrinas y deberes,
    
  • it starts out with a sitar i think and then this guitar part
    e---------------------------------------------------------------------------------------------
    B---------------------------------------------------------------------------------------------
    G---------------------------------------------------------------------------------------------
    D---------------------------------------------------------------------------------------------
    A---------6-----------1-----0--1-1-1-1-1-0--------0---x2--------------------------------------
    E---8--8-----8---3-3-----3------------------3-1-1---1-----------------------------------------
    
    then she starts singing and there is pretty much silence but little guitar parts here and there
    e--------------8----7---5----8---6--10--------------------------------------------------------
    B--------------10---8---6----10--8--11--------------------------------------------------------
    G--10/12---------------------------------------------------------------
  • B||---------6-----6--3--6-|-3-----------3--6--3--||
    G||-----------------------|----5--3--5-----------||
    D||-----------------------|----------------------||
    A||-----------------------|----------------------||
    E||-----------------------|----------------------||
    
    
    
    E||-------------------------------|------------------------|
    B||-------------------------------|------------------------|
    G||-------------------------------|------------------------|
    D||-------------------------------|------------------------|
    A||3--3--6--3—3/1-----------------|------------------------|
    E||----------------3--3--6--3—-3--|-3--4--6--6—-6--6—-4--3-|
    
                          BIS
    E|----------------------||
    B|----------------------||
    G|----------------------||
    D|----------------------||
    
  • Esta es una mejora de los riffs de esta cancion,pues no se 
    incluyeron completos en transcripciones anteriores...
    
    El primero es el riff del principio que suena como a chino 
    cuando se repite al final de la cancion:
    
    e|--3-6-3---3-------------------------------|
    A|--------6---6-3-6-3-------3-6-3--6-6-4-3-1|
    D|--------------------5-3-5-----------------|
    G|------------------------------------------|
    B|------------------------------------------|
    E|------------------------------------------|
    
    e|--3-6-3---3-------------------------------|
    A|--------6---6-3-6-3-------3-6-3--6-6-4-3-6|
    D|--------------------5-3-5-----------------|
    G|------------------------------------------|
    B|------------------------------------------|
    E|------------------------------------------|
    
    e|--8-8-6-8-10-6-5-6---6-6-5-3-1------------|
    A|------------------------------------------|
    D|------------------------------------------|
    G|------------------------------------------|
    B|-------------------
  • ubiquense en los tiempos
    principalmente despues del solo del intro y el siguiente ok?
    
    Intro
    E|----------|-3-3---3--|
    A|--3-3---3-|-----1----|
    D|------1---|----------|
    G|----------|----------|
    
    E|--3-4---|---------3-|-11---1-11---1--|
    A|------1-|-1-11--1---|----0------0----|
    D|--------|-----------|----------------|
    G|--------|-----------|----------------|
    
    E|----------|-3-3---3--|
    A|--3-3---3-|-----1----|
    D|------1---|----------|
    G|----------|----------|
    
    E|--3-3---|---------3-|-11---1-11---1--|
    A|------1-|-1-11--1---|----0------0----|
    D|--------|-----------|----------------|
    G|--------|-----------|----------------|
    
            Que se arruinen
    E|------|------|----|------|------|
    A|--8---|-8----|----|-10---|------|
    D|----7-|---10-|-10-|----8-|---8--|
    G|------|------|----|------|-7----|
    
            que se vuelvan anticuadas
    E|------|------|----|------|------|
    A|--8---|-8----|----|-10---|------|
    D|----7-|---10-|-10-|----8-|---8--|
    G|------|------|----|------|-7----|
    
    que se supriman
    E|---------
  • +
    ¡Colabora con nosotros!
    Envíanos tu versión de esta canción

Letra de Que me quedes tu
Que se arruinen los canales de noticias,
con lo mucho que odio la televisión.
Que se vuelvan anticuadas las sonrisas
y que se extingan todas las puestas de sol.
Que se supriman las doctrinas y deberes,
que se terminen las películas de acción,
que se destruyan en el mundo los placeres,
y que se escriba hoy una ultima canción.
Pero que me quedes tu
me quede tu abrazo
y el beso que inventas cada día.
Que me quede aquí
después del ocaso
para siempre tu melancolía.
porque yo, yo, si, si que dependo de ti
si me quedas tú, me queda la vida.
Que desaparezcan todos los vecinos,
y se coman las sobras de mi inocencia.
Que se vallan uno a uno los amigos
y acribillen mi pedazo de conciencia.
Que se consuman las palabras en los labios,
que contaminen toda el agua del planeta,
o que renuncien los filántropos y sabios,
y que se muera hoy hasta el ultimo poeta.




[Que me quedes tu chords][Que me quedes tu cifra]
© LaCuerda.net · aviso legal · privacidad · es · en · pt · contacto