Acordes de Guitarra » S »Shakira » Ojos así (Tab)

Ojos así
Shakira

Letras, Acordes y Tabs para Guitarra, Bajo y Ukulele

  • C#                         D
    Ayer conocí un cielo sin sol
                     C#
    y un hombre sin suelo
    
    un santo en prisión
               D              C#
    y una canción triste sin dueño
    
        D
    Ya he ya la he
           C#
    y conocí tus ojos negros
        D
    ya he ya la he
             C#
    y ahora sí que no
    
    puedo vivir sin ellos yo
    
    
  • LaM)Ayer conocí un cielo sin (SibM)sol
    y un hombre sin (LaM)suelo
    (LaM)Un santo en prisión
    y una canción(SibM) triste sin dueño(LaM)
    
    (Solm))ya he ya he ya la he
    y conocí(LaM) tus ojos negros
    (Solm)ya he ya he ya la he
    y ahora (LaM)sí que no
    puedo vivir sin ellos yo
    
    (LaM)Le pido al cielo sólo un deseo
    (Solm)que en tus ojos yo pueda vivir
    (LaM)he recorrido ya el mundo entero
    (Solm)y una cosa te vengo a decir
    (LaM)viaje de Bahrein hasta Beirut
    (Solm)fui desde el norte hasta el polo sur
    y (LaM)no encontré ojos así
    (SibM)como los que tienes tú(LaM)
    
    Rabboussamai fikarrajaii
    fi ainaiha aralhayati
    ati ilaika min haza lkaaouni
    arjouka labbi labbi nidai
    viaje de Bahrein hasta Beirut
    fuí desde el norte hasta el polo sur
    y no encontré ojos así
    como los que tienes tú
    
    Ayer vi pasar una mujer
    debajo de su camello
    un río de sal un barco
    abandonado en el desierto
    
    ya he ya he ya la he
    y conocí tus ojos negros
    ya he ya he ya la he
    y ahora sí que 
  • Gtr I   (E A D G B E) - sitara
    Gtr II  (E A D G B E) - sitara
    Gtr III (E A D G B E) - Guitarra limpia
    Gtr IV  (E A D G B E) - Guitarra con distorsion
    
    
      Q=130
     4/4
      Gtr I
      W          W          W          W
    |----------|----------|----------|------|
    |----------|----------|----------|------|
    |----------|----------|----------|------|
    |----------|----------|----------|------|
    |----------|----------|----------|------|
    |----------|----------|----------|------|
    
    
      W          Q  Q  Q  E E   Q  E E E E Q    Q  Q  Q  E E
    |----------|--------------|---------------|--------------|
    
  • e|------------------------------|------------------------------|
    B|------------------------------|------------------------------|
    G|------------------------------|------------------------------|
    D|--------3-4-3--6--6-3-4-3-----|--------3-4-3--6-6-3-4-4-3----|
    A|--2--4---------------------4--|--2--4---------------------4--|
    E|------------------------------|------------------------------|
    
    e|------------------------------|-------------------|
    B|------------------------------|-------------------|
    G|------------------------------|-------------------|
    D|--------3-4-3--6--6-3-4-3-----|--------3-4-3------|
    A|--2--4---------------------4--|--2--4---------4---|
    E|------------------------------|-------------------|
    
    Aqui estan unos riff donde se pueden repetir toda la cancion 
    o para remplazar el oud el acordeon y el violin
    bueno si lo desean
    
    e|---------------------------------------------------------|
    B|--2-2--0-------------------2-2--0------------------------|
    
  • Standard Tuning EADGBe
    
    Ok i learned this off the Latin Grammy Video to match this up with the laundry service
    version called eyes like yours you have to skip the first line and start with the second
    line it matches with unplugged though.
    
    
    Start with this chord play it several times then that riff comes in you play it 4 times
    e---------------------------------------------------------------------------------------------
    B---------------------------------------------------------------------------------------------
    G---7--7--7-----------------------------------------------------------------------------------
    D---7--7--7---------11-11-9-7-6-7-7-6-7-9-----------------------------------------------------
    A---5--5--5-----------------------------------------------------------------------------------
    E---------------------------------------------------------------------------------------------
    
    
    
    Then this is played
    e-----------------------------------------------------------
  • La afinacion del Bajo es Medio tono menos (Db Gb B E)
    Es un Bajo muy sencillo, solo hay que escuchar la cancion..
    Empezamos!!!
      
    Q=130
     4/4
      Gtr I
      W          W          W          W
    |----------|----------|----------|------|
    |----------|----------|----------|------|
    |----------|----------|----------|------|
    |----------|----------|----------|------|
    
    
      W          W          +H.      Q    W
    |----------|----------|-------------|------|
    |----------|----------|-------------|------|
    |----------|----------|-------------|------|
    |----------|-0--------|-(0)---------|-0----|
    
    
      +H     +Q   +S  S E   W          +H     +Q   +S  S E   W
    |---------------------|----------|---------------------|------|
    |---------------------|----------|---------------------|------|
    |---------------------|----------|---------------------|------|
    |-(0)----(0)--(0)-----|-0--------|-(0)----(0)--(0)-----|-0----|
    
    
      +H     +Q   +S  S E   E S S E S S E S S S S S S   Q  E S S S S S S S S S S
    
  • +
    ¡Colabora con nosotros!
    Envíanos tu versión de esta canción

Letra de Ojos así
Ayer conocí un cielo sin sol
y un hombre sin suelo
un santo en prisión
y una canción triste sin dueño
Ya he ya la he
y conocí tus ojos negros
ya he ya la he
y ahora sí que no
puedo vivir sin ellos yo
Le pido al cielo sólo un deseo
que en tus ojos yo pueda vivir
he recorrido ya el mundo entero
y una cosa te vengo a decir
viaje de Bahren hasta Beirut
fuí desde el norte hasta polo sur
y no encontré ojos así
como los que tienes tú
rabboussamai fikarrajaii
fi ainaiha aralhayati
ati ilaika min haza lkaaouni
arjouka labbi labbi nidai
viaje de Bahren hasta Beirut
fuí desde el norte hasta polo sur
y no encontré ojos así
como los que tienes tú
Ayer vi pasar una mujer
debajo de su camello
un río de sal un barco
abandonado en el desierto
Ya he ya la he
y vi pasar tus ojos negros
ya he ya la he
y ahora sí que no
puedo vivir sin ellos yo
Le pido al cielo sólo un deseo
que en tus ojos yo pueda vivir
he recorrido ya el mundo entero
y una cosa te vengo a decir
viaje de Bahren hasta Beirut
fuí desde el norte hasta polo sur
y no encontré ojos así
como los que tienes tú
Le pido al cielo sólo un deseo
que en tus ojos yo pueda vivir
he recorrido ya el mundo entero
y una cosa te vengo a decir
viaje de Bahren hasta Beirut
fuí desde el norte hasta polo sur
y no encontré ojos así
como los que tienes tú...
Aun no estoy totalmente seguro si
las notas del verso esta correctas.
Cualquier sugerencia o correcion
haganmelo saber...




[Ojos así chords][Ojos así cifra]
© LaCuerda.net · aviso legal · privacidad · es · en · pt · contacto