Acordes de Guitarra » S »Sevillanas » Salve Rociera (Tab)

Salve Rociera
Sevillanas

Letras, Acordes y Tabs para Guitarra, Bajo y Ukulele

  • LA          DO#m  SIm
    Dios te salve María
    MI    RE       LA
    del rocio Señora
                        DO#m
    luna, sol, noche y día
        SIm    MI     LA
    mi pastora celestial
     LA         DO#m  SIm
    Dios te salve María
     MI      RE          LA
    todo el pueblo te adora
                DO#m  SIm
    y repite a por fia
          MI       RE      LA
    como tu no hay otra igual.
    LA    LA
    Olé, olé,.... (18 VECES)
        SI7               MIm
    Al Rocio yo quiero volver
    
  • ----0-0---0---0-1-0---0---0-1-0-----0---0-----------------------------
    --------3---3-------3---3-------1-1---3---3-1-0---------0---0-1-0-----
    -0----------------------------------------2-0-0-2---2-------2-0-0
    ----------------------------------------------------------------------
    ----------------------------------------------------------------------
    ----------------------------------------------------------------------
    
    -0-----0----------------------------------------0-0---0---0-1-0--
    ---3-1-------------0-------------------0------------------3---3-------3
    ---------0-------0---2-------0-------0---2---2-2-0-0-0-----------------
    -----------3-2-3-------3-2-0---3-2-3-----------------------------------
    -----------------------------------------------------------------------
    -----------------------------------------------------------------------
    
    -0---0-1-0---0-1-0---0-1-0---0-3-3-1-----------------------------------
    ---3---------3-------3-------3----------3-1---------------------------
    -----------------------------------------------------------------------
    ----------------------------------------------------------------------
    ----------------------------------------------------------------------
    ----------------------------------------------------------------------
    
  • +
    ¡Colabora con nosotros!
    Envíanos tu versión de esta canción

Letra de Salve Rociera
Dios te salve María
del rocio Señora
luna, sol, noche y día
mi pastora celestial
Dios te salve María
todo el pueblo te adora
y repite a por fia
como tu no hay otra igual.
Olé, olé,.... (18 VECES)
Al Rocio yo quiero volver
a cantarle a la Virgen con Fe con un olé
(bis).
Dios te salve María
Manantial de dulzura
A tus pies noche y dia
Te venimos a rezar
Dios te salve María
Un rosal de hermosura
eres Tú Madre mía
de pureza virginal




[Salve Rociera chords][Salve Rociera cifra]
© LaCuerda.net · aviso legal · privacidad · es · en · pt · contacto