Acordes de Guitarra » S »Segundo Rosero » Nadie es eterno (Tab)

Nadie es eterno
Segundo Rosero

Letras, Acordes y Tabs para Guitarra, Bajo y Ukulele

  • DO                    MI
    NADIE ES ETERNO EN EL MUNDO
    FA                 SOL7
    NI TENIENDO UN CORAZÓN
    FA        SOL7        DO  LA
    QUE TANTO SIENTE Y SUSPIRA
           RE   SOL7        DO
    POR LA VIDA,      Y EL AMOR.
    
                       MI
    TODO LO ACABAN LOS AÑOS
    FA                 SOL7
    DIME QUE TE LLEVAS TU,
    FA        SOL7      DO   LA
    SI CON EL TIEMPO NO QUEDA
          RE   SOL7        DO   FA-SOL7
    NI LA TUMBA     NI LA CRUZ
    
             DO         FA        SOL7
    CUANDO USTEDES ME ESTÉN DESPIDIENDO
    
  •  MI
     Nadie es eterno en el mundo
     FA#m               SI7
     ni teniendo un corazón
     LA         SI7        MI
     que tanto siente y suspira
            FA#m        SI7
     por la vida y el amor.
    
     MI
     Todo lo acaban los años.
     FA#m               SI7
     Dime qué te llevas tú.
     LA        SI7       MI
     Si con el tiempo no quedan
           FA#m         SI7
     ni la tumba ni la cruz.
    
     Coro:
    
    
  • e|--0--0-0--0------3-0--------------------------------------------|
    B|------------3-1-------------------------------------------------|
    G|----------------------------------------------------------------|
    D|----------------------------------------------------------------|
    A|----------------------------------------------------------------|
    E|----------------------------------------------------------------|
    
    e|--5--5-5--5--3-5-7-5-3------------------------------------------|
    B|----------------------------------------------------------------|
    G|----------------------------------------------------------------|
    D|----------------------------------------------------------------|
    A|----------------------------------------------------------------|
    E|----------------------------------------------------------------|
    
    e|--8-8--7-5--3-5--3-----------|-1-0-0----------------------------|
    B|-----------------------------|--------3-1-1-1-------------------|
    G|-----------------------------|----------------------------------|
    D|-----------------------------|----------------------------------|
    A|-----------------------------|----------------------------------|
    E|-----------------------------|----------------------------------|
    
  • +
    ¡Colabora con nosotros!
    Envíanos tu versión de esta canción

Letra de Nadie es eterno
NADIE ES ETERNO EN EL MUNDO
NI TENIENDO UN CORAZÓN
QUE TANTO SIENTE Y SUSPIRA
POR LA VIDA, Y EL AMOR.
TODO LO ACABAN LOS AÑOS
DIME QUE TE LLEVAS TU,
SI CON EL TIEMPO NO QUEDA
NI LA TUMBA NI LA CRUZ
CUANDO USTEDES ME ESTÉN DESPIDIENDO
CON EL ÚLTIMO ADIÓS DE ESTE MUNDO
NO ME LLOREN QUE NADIE ES ETERNO,
NADIE VUELVE DEL SUEÑO, PROFUNDO,
SUFRIRÁS, LLORARÁS, MIENTRAS TE ACOSTUMBRES A PERDER,
DESPUÉS TE, RESIGNARÁS, CUANDO YA, NO ME VUELVAS A VER.
ADIÓS A LOS QUE SE QUEDAN
SIEMPRE LES QUISE CANTAR,
SUERTE Y QUE LA GOCEN MUCHO
YA NO HAY TIEMPO, DE LLORAR.
NO LLOREN POR EL QUE MUERE,
QUE PARA SIEMPRE SE VA,
VELEN POR LOS QUE SE QUEDAN,
SI LOS PUEDEN, AYUDAR,
CUANDO USTEDES ME ESTÉN DESPIDIENDO
CON EL ÚLTIMO ADIÓS DE ESTE MUNDO
NO ME LLOREN QUE NADIE ES ETERNO,
NADIE VUELVE DEL SUEÑO, PROFUNDO,
SUFRIRÁS, LLORARÁS, MIENTRAS TE ACOSTUMBRES A PERDER,
DESPUÉS TE, RESIGNARÁS, CUANDO YA, NO ME VUELVAS A VER.
ESTA ES UNA DE LAS CANCIONES MAS LINDAS DE ROSERO
SE LAS ENVIO A TODOS MIS AMIGOS QUE LES GUSTA.
SOY GERARDO DE QUITO ECUADOR.




[Nadie es eterno chords][Nadie es eterno cifra]
© LaCuerda.net · aviso legal · privacidad · es · en · pt · contacto
DINAMICO