Acordes de Guitarra » S »Segundo Rosero » Como voy a olvidarte (Tab)

Como voy a olvidarte
Segundo Rosero

Letras, Acordes y Tabs para Guitarra, Bajo y Ukulele

  • MIm             RE
    Cómo voy a olvidarte
                  MIm
    si estás prendida en mí,
                    RE
    cómo voy a olvidarte
             DO        SOL
    si te llevo en mi ser.
    
     SI7
    Ay si supieras de veras
                 MIm
    lo que eres para mí,
    
    eres más que mi amor
         SI7         MIm
    la razón de mi vivir.
    
          LAm
    Y aún así
    
  • hola gente espero q les guste mi transquipcion es la primera
    q mando
    
    
    ------14------17--16--14----------------
    --14------14--------------17--14----14--
    ---------------------------------16-----
    ----------------------------------------
    ----------------------------------------
    ----------------------------------------
    
    ------14------17--16--14----------------
    --14------14--------------17--14-----14-
    ---------------------------------16-----
    ----------------------------------------
    ----------------------------------------
    ----------------------------------------
    
    ------2-------5---4---2-----------------
    --2-------2---------------5---2-------2-
    ----------------------------------4-----
    ----------------------------------------
    ----------------------------------------
    ----------------------------------------
    
    --7---10---7---7---10---7---7---10---7--
    ----------------------------------------
    ----------------------------------------
    ----------------------------------------
    ------------------------
  • +
    ¡Colabora con nosotros!
    Envíanos tu versión de esta canción

Letra de Como voy a olvidarte
Cómo voy a olvidarte
si estás prendida en mí,
cómo voy a olvidarte
si te llevo en mi ser.
Ay si supieras de veras
lo que eres para mí,
eres más que mi amor
la razón de mi vivir.
Y aún así
no estas conmigo,
estás tan lejos,
dónde estarás.
Quisiera verte
quisiera hablarte,
es tan difícil vivir sin tí.
Y si en verdad sientes amor por mí
ven a mis brazos
no te vayas jamás.
Cómo voy a olvidarte...




[Como voy a olvidarte chords][Como voy a olvidarte cifra]
© LaCuerda.net · aviso legal · privacidad · es · en · pt · contacto