Acordes de Guitarra » S »Seguimos perdiendo » Gabi (Tab)
  • Tablatura
    e|-------------------------|
    b|-------------------------|
    g|-------------------------|2 veces
    d|------4-----5----7-------|
    a|--5---2-----3----5----5--|
    E|--3-------------------3--|
        G5   B5 C5   D5  G5
    
    despues de q haces el intro la 1ra vez
    tiene un arreglillo mas o menos asi:
    
    e|------------------------------|
    b|------------------------------|
    g|--4h5-3-5-3-------------------|
    d|------------5-0---------------|
    a|-----------------5------------|
    E|-----------------3------------|
    
    Bajo
    G:----------------------------------|
    
  • +
    ¡Colabora con nosotros!
    Envíanos tu versión de esta canción

Letra de Gabi
despues de q haces el intro la 1ra vez
tiene un arreglillo mas o menos asi:
Bajo
G5G5G5G5
Hola Como estas En los Bares de Ciudad
Pastelitos en el Once y esas Ganas de Hablar..
no te preocupes sin saber a qien creer
no me des explicaciones solo desapareces...
Gaby no es importante perder
si no el Perdon de mierda llegara...
sacate parte ya de una vez.
y te ves muy bonita respirar
*Aqui la Guitarra se Calla y Qeda el puro bajo con la bateria
No te Preocupes Tu Cuerpo Es lo Que Fue
y tu Cabezita Enferma no me importa entender
*Entra guitarra
si Me rio mas O si busco otra mas
yo nunca te hable de amores no se por que escapar
Gaby no es importante perder
si no el Perdon de mierda llegara...
sacate, parte ya de una vez.
y te ves muy bonita respirar.
Sabes no es importante perder
si no el Perdon de mierda llegara...
sacate parte ya de una vez.
y te ves muy bonita respirar.
Yo Estoy Con Dos
Yo Estoy Con Dos
Yo Estoy Con Dos
Yo Estoy Con Dos
Yo Estoy Con Dos
Yo Estoy Con Dos
Eso Es Todo...
asi La Saque i pss si esta mal ni pedo...
Alguna duda, mentada de madre,etc a:
duck_unk@hotmail.com
Saludos a los tropicos



© LaCuerda.net · aviso legal · privacidad · contacto
DINAMICO