Acordes de Guitarra » S »Savia Andina » Amorosa Palomita (Tab)

Amorosa Palomita
Savia Andina

Letras, Notas, Punteos, Tablaturas y Acordes de Guitarra (Tabs & Chords)

  • Letra y Acordes
    e|-------------0-0---2-2/3---0-0---2-2/3---0-0----------------|
    B|-------------1-1---3-3-3---1-1---3-3-3---1-1-----5-3-1-0-1--|
    G|-2-2-2-2/5---0-0---2-2-2---0-0---2-2-2---0-0--------------2-|
    D|-3-3-3-3---------0-------------0----------------------------|
    A|-----------3-------------3-------------3--------------------|
    E|----------------------------------------------0-------------|
    
    FA DO RE DO RE DO MI LAm
    DO-MI-LAm
    
    FA
    Que bonito me cantaba ayayayaiii
                    RE-DO
    La amorosa palomita
    DO           RE        DO
    arrullándome en sus besos
     MI                     LAm
    fue cuando dijo te quiero
    
    FA
    
  • Letra y Acordes
    e|-----------0-0---2-2-2---0-0---2-2-2---0-0-----------------|
    B|-----------1-1---3-3-3---1-1---3-3-3---1-1-----------------|
    G|-2-2-2-2---0-0---2-2-2---0-0---2-2-2---0-0-----------------|
    D|-3-3-3-3-------0-------------0----------------3-2-0--------|
    A|---------3-------------3-------------3--------------3-2-0--|
    E|--------------------------------------------0--------------|
      FA DO RE DO RE DO MI LA
    
    FA
    Que bonito me cantaba
    
    LA amorosa palomita
    DO           RE        DO
    arrullandome en sus besos
     MI                     LA
    fue cuando dijo te quiero
    
    FA
    En la jaula de mi pecho
    
    
  • +
    ¡Colabora con nosotros!
    Envíanos tu versión de esta canción

Letra de Amorosa Palomita
Que bonito me cantaba
arrullandome en sus besos
fue cuando dijo te quiero
En la jaula de mi pecho
donde cautiba te allabas
al saberse bien amada
que bonito me cantaba
QUIMBA
Los alagos que me has hecho
que mentiras has cumplido
un amor tan extremado
en nada se ha convertido
un amor tan extremado
en nada se ha convertido.

Videos de Amorosa Palomita
[ver más videos]

[ver todas las canciones]


© LaCuerda.net · Aviso Legal · Privacidad