Acordes de Guitarra » S »Savia Andina » Por que estás triste (Tab)

Por que estás triste
Savia Andina

  • Letra y Acordes
    Intro: Eb  - Fm
    
    Fm                                Eb
      Por qué estas triste dime por que
                   Cm   Fm
      veo en tus ojos pena y dolor
                 Ab        Eb
      que negras nubes te hacen sufrir
                 Cm    Fm
      siento llover en tu corazón
    
    
    
                 Ab        Eb
      Por qué tan lejos miras por que
                   Cm      Fm
      o algo presientes que sea fatal
                 Ab        Eb
      no llores vida me harás llorar
                  Cm   Fm
    
  • Tablatura
    Em                  G    D
      Por que estas triste dime por que
                   Bm   Em
      veo en tus ojos pena y dolor
                    G   D
      que negras nubes te hacen sufrir
                 Bm    Em
      siento llover en tu corazón
    
    
    
                    G    D
      Por que tan lejos miras por que
                  Bm      Em
      o halgo precientes que sea fatal
                    G   D
      no llores vida me haras llorar
                  Bm   Em
      y nuestro llanto nos ahogará
    
    
  • Tablatura
             Em                  G          D
    e--0----0----0----0----7----7-5-7----7-3-2-------2-0---
    b----0----0----0----0----0--------0--------0----3------
    g------0----0----0----0----0--------0--------0-2-------
    d------------------------------------------------------  (x 2)
    a------------------------------------------------------
    E------------------------------------------------------
    
    
    
       Bm                     Em
    e--0----0----0-------0-3-2----2----2----3-2---0------
    b----0----0----0---0-------0----0----0------3--------
    g------0----0----0-----------0----0----0-------------
    d----------------------------------------------------    (x 2)
    a----------------------------------------------------
    E----------------------------------------------------
    
    
    Em                  G    D
    
  • +
    ¡Colabora con nosotros!
    Envíanos tu versión de esta canción

Letra de Por que estás triste
Por qué estas triste dime por que
veo en tus ojos pena y dolor
que negras nubes te hacen sufrir
siento llover en tu corazón
Por qué tan lejos miras por que
o algo presientes que sea fatal
no llores vida me harás llorar
y nuestro llanto nos ahogará
No llores vida me harás llorar
No llores vida me harás llorar
Charango:
Sicus:
Sé que en la vida hay que luchar
y siendo pobres con una cruz
pero tu amor mi amor vale más
por eso pido no sufras más
Si es por el hijo que estás así
seca esa lágrima ya llegará
y en sus ojos nos traerá
una mirada llena de amor
Pero no llores me harás llorar
Pero no llores me harás llorar
Pero no llores me harás llorar
Ahhhhhhhhhhh Uhhhhhhhhhhhhhh



© LaCuerda.net · aviso legal · privacidad · contacto