Acordes de Guitarra » S »Saratoga » A Morir (Tab)

A Morir
Saratoga

Letras, Acordes y Tabs para Guitarra, Bajo y Ukulele

  • Em
        Aires de grandeza
    F                 Em
        Fuego en la piel
    
        Alas de un destino
    F                 Em
        Que aun no llegó
    
        Mentes solitarias
    F              Em
        Cuero y sudor
    
       Ojos que no brillan
    F             Am
       Luz sin calor
    F Em C D       Am  G F D F
         Ser inmortal
    
    
    
  • Esta tab va dedicada al Heavy Metal y a todos los que lo seguimos!
    
    Ahí VA
    
    Afinación: D# o Eb
    
    Intro [00:00]
    eb|---------------------------------------------|
    Bb|---------------------------------------------|
    Gb|---------------9-10-9-7-9-10-9-9----------9—-|
    Db|---------------9-10-9-7-9-10-9-9----------9--|
    Ab|-----------7---7--8-7-5-7--8-7-7----------7--|
    Eb|--5-7-9-10---5-------------------0000000000--|
    
    PM                                  ..........
    
    
    Verso 1 [00:18]
    eb|------------------------------------------------|
    Bb|------------------------------------------------|
    Gb|-----------9—--------9----------10--------------|
    Db|-----------9---------9----------10--------------|
    Ab|-----------777777777777777777777888888888888----|
    Eb|--0000000000------------------------------------|
    
    PM  ...........................................
    
    Interludio [00:36]
    eb|---------------------------------|
    Bb|---------------------------------|
    Gb|-----------------10---9---5---7--|
    Db|----------------
  • +
    ¡Colabora con nosotros!
    Envíanos tu versión de esta canción

Letra de A Morir
Aires de grandeza
Fuego en la piel
Alas de un destino
Que aun no llegó
Mentes solitarias
Cuero y sudor
Ojos que no brillan
Luz sin calor
Ser inmortal
Quieren sentir
el viento en la cara
sobre el motor
se funde un solo corazón.
Sobran las palabras
Tienen su ley
Ruedan sobre asfalto
No hay ningún rey
Oyes que se acercan
Todo tembló
Es el fin del mundo
Tu salvación
Ser inmortal
Judas abrió
Las puertas del infierno
Pronto surgió
Como un ciclón devastador
Estribillo:
A morir y a resistir
A explotar, la libertad
Arrasar, la gran ciudad
Los buenos tiempos volverán
Espero que os guste. Para cualquier duda, correción, etc...
no dudeís en escribirme a cualquiera de mis direcciones de correo:
hold_on_to_your_dream_@hotmail.com
neutronic_force@hotmail.com




[A Morir chords][A Morir cifra]
© LaCuerda.net · aviso legal · privacidad · es · en · pt · contacto
DINAMICO